Shadow Of A Lost Dream - Coroner - Guitar Tabs

Vetterli (Left Rhythm)
    
                                                                                                                                                                                                                                                                                                                                                                                                                                                                                                                                                                                                                                                                                                                                                                                                                                                                                                                                                                                                                                                                                                                                                                                              
E|-------------------------------------|--------------------------------|
B|-------------------------------------|--------------------------------|
G|-------------------------------------|--------------------------------|
D|--2--------------2--------------4--4-|2--------------2--------4--5--6-|
A|--2--------------2--------------4--4-|2--------------2--------4--5--6-|
E|--0--0--0--0--0--0--0--0--0--0--2--2-|0--0--0--0--0--0--0--0--2--3--4-|

    
                                                                                                                                                                                                                                                                                                                                                                                                                                                                                                                                                                                                                                                                                                                                                                                                                                                                                                                                                                                                                                                                                                                                                                                              
E|-------------------------------------|-----------------------------|
B|-------------------------------------|-----------------------------|
G|-------------------------------------|-----------------------------|
D|--2--------------2--------------4--4-|2--------------2--------3----|
A|--2--------------2--------------4--4-|2--------------2--------3----|
E|--0--0--0--0--0--0--0--0--0--0--2--2-|0--0--0--0--0--0--------1----|

    
                                                                                                                                                                                                                                                                                                                                                                                                                                                                                                                                                                                                                                                                                                                                                                                                                                                                                                                                                                                                                                                                                                                                                                                              
E|-------------------------------------|--------------------------------|
B|-------------------------------------|--------------------------------|
G|-------------------------------------|--------------------------------|
D|--2--------------2--------------4--4-|2--------------2--------4--5--6-|
A|--2--------------2--------------4--4-|2--------------2--------4--5--6-|
E|--0--0--0--0--0--0--0--0--0--0--2--2-|0--0--0--0--0--0--0--0--2--3--4-|

    
                                                                                                                                                                                                                                                                                                                                                                                                                                                                                                                                                                                                                                                                                                                                                                                                                                                                                                                                                                                                                                                                                                                                                                                              
E|-------------------------------------|-----------------------------|
B|-------------------------------------|-----------------------------|
G|-------------------------------------|-----------------------------|
D|--2--------------2--------------4--4-|2--------------2--------3----|
A|--2--------------2--------------4--4-|2--------------2--------3----|
E|--0--0--0--0--0--0--0--0--0--0--2--2-|0--0--0--0--0--0--------1----|

    
                                                                                                                                                                                                                                                                                                                                                                                                                                                                                                                                                                                                                                                                                                                                                                                                                                                                                                                                                                                                                                                                                                                                                                                              
E|-------------------------------|-----------------------------------------------|
B|-------------------------------|-----------------------------------------------|
G|-------------------------------|-----------------------------------------------|
D|--2--------------2--------3----|-----------------------------------------------|
A|--2--------------2--------3----|-----------------------------------------------|
E|--0--0--0--0--0--0--------1----|0--7-----10-0--6-----9--0--5-----8--0--4-----7-|

    
                                                                                                                                                                                                                                                                                                                                                                                                                                                                                                                                                                                                                                                                                                                                                                                                                                                                                                                                                                                                                                                                                                                                                                                              
E|-------------------------------------------|-----------------------------------------------|
B|-------------------------------------------|-----------------------------------------------|
G|-------------------------------------------|-----------------------------------------------|
D|--------------------------------9-----10---|-----------------------------------------------|
A|--------------------------7-----7-----8----|-----------------------------------------------|
E|--0--7-----10-0--6-----9--5----------------|0--7-----10-0--6-----9--0--5-----8--0--4-----7-|

    
                                                                                                                                                                                                                                                                                                                                                                                                                                                                                                                                                                                                                                                                                                                                                                                                                                                                                                                                                                                                                                                                                                                                                                                              
E|-------------------------------------------|-----------------------------------------------|
B|-------------------------------------------|-----------------------------------------------|
G|-------------------------------------------|-----------------------------------------------|
D|-------------------------------------------|-----------------------------------------------|
A|--------------------------7-----8-----5----|-----------------------------------------------|
E|--0--7-----10-0--6-----9--5-----6-----3----|-0p7-----10--0p6-----9---0p5-----8---0p4-----7-|

    
                                                                                                                                                                                                                                                                                                                                                                                                                                                                                                                                                                                                                                                                                                                                                                                                                                                                                                                                                                                                                                                                                                                                                                                              
E|-------------------------------------------|-----------------------------------------------|
B|-------------------------------------------|-----------------------------------------------|
G|-------------------------------------------|-----------------------------------------------|
D|--------------------------------9-----10---|-----------------------------------------------|
A|--------------------------7-----7-----8----|-----------------------------------------------|
E|---0p7-----10--0p6-----9--5----------------|-0p7-----10--0p6-----9---0p5-----8---0p4-----7-|

    
                                                                                                                                                                                                                                                                                                                                                                                                                                                                                                                                                                                                                                                                                                                                                                                                                                                                                                                                                                                                                                                                                                                                                                                              
E|-------------------------------------------|-----------------------------------------------|
B|-------------------------------------------|-----------------------------------------------|
G|-------------------------------------------|-----------------------------------------------|
D|-------------------------------------------|-----------------------------------------------|
A|--------------------------7-----8-----5----|-----------------------------------------------|
E|---0p7-----10--0p6-----9--5-----6-----3----|0--7-----10-0--6-----9--0--5-----8--0--4-----7-|

    
                                                                                                                                                                                                                                                                                                                                                                                                                                                                                                                                                                                                                                                                                                                                                                                                                                                                                                                                                                                                                                                                                                                                                                                              
E|-------------------------------------------|-----------------------------------------------|
B|-------------------------------------------|-----------------------------------------------|
G|-------------------------------------------|-----------------------------------------------|
D|--------------------------------9-----10---|-----------------------------------------------|
A|--------------------------7-----7-----8----|-----------------------------------------------|
E|--0--7-----10-0--6-----9--5----------------|0--7-----10-0--6-----9--0--5-----8--0--4-----7-|

    
                                                                                                                                                                                                                                                                                                                                                                                                                                                                                                                                                                                                                                                                                                                                                                                                                                                                                                                                                                                                                                                                                                                                                                                              
E|-------------------------------------------|-----------------------------------------------|
B|-------------------------------------------|-----------------------------------------------|
G|-------------------------------------------|-----------------------------------------------|
D|-------------------------------------------|-----------------------------------------------|
A|--------------------------7-----8-----5----|-----------------------------------------------|
E|--0--7-----10-0--6-----9--5-----6-----3----|0--7-----10-0--6-----9--0--5-----8--0--4-----7-|

    
                                                                                                                                                                                                                                                                                                                                                                                                                                                                                                                                                                                                                                                                                                                                                                                                                                                                                                                                                                                                                                                                                                                                                                                              
E|-------------------------------------------|-----------------------------------------------|
B|-------------------------------------------|-----------------------------------------------|
G|-------------------------------------------|-----------------------------------------------|
D|--------------------------------9-----10---|-----------------------------------------------|
A|--------------------------7-----7-----8----|-----------------------------------------------|
E|--0--7-----10-0--6-----9--5----------------|0--7-----10-0--6-----9--0--5-----8--0--4-----7-|

    
                                                                                                                                                                                                                                                                                                                                                                                                                                                                                                                                                                                                                                                                                                                                                                                                                                                                                                                                                                                                                                                                                                                                                                                              
E|-------------------------------------------|--------------------------------------|
B|-------------------------------------------|--------------------------------------|
G|-------------------------------------------|--------------------------------------|
D|-------------------------------------------|------------------------------7---7/8-|
A|--------------------------7-----8-----5----|-------------8/7--------------5---5/6-|
E|--0--7-----10-0--6-----9--5-----6-----3----|5--5--5--5---6/5--5--5--5--5----------|

    
                                                                                                                                                                                                                                                                                                                                                                                                                                                                                                                                                                                                                                                                                                                                                                                                                                                                                                                                                                                                                                                                                                                                                                                              
E|----------------------------------|--------------------------------------|
B|----------------------------------|--------------------------------------|
G|----------------------------------|--------------------------------------|
D|--------------------8-----7-------|------------------------------7---7/8-|
A|---------------8/7--6-----5-----8-|-------------8/7--------------5---5/6-|
E|--5--5--5--5---6/5--------------6-|5--5--5--5---6/5--5--5--5--5----------|

    
                                                                                                                                                                                                                                                                                                                                                                                                                                                                                                                                                                                                                                                                                                                                                                                                                                                                                                                                                                                                                                                                                                                                                                                              
E|----------------------------------|--------------------------------------|
B|----------------------------------|--------------------------------------|
G|----------------------------------|--------------------------------------|
D|--------------------8-----7-------|------------------------------7---7/8-|
A|---------------8/7--6-----5-----8-|-------------8/7--------------5---5/6-|
E|--5--5--5--5---6/5--------------6-|5--5--5--5---6/5--5--5--5--5----------|

    
                                                                                                                                                                                                                                                                                                                                                                                                                                                                                                                                                                                                                                                                                                                                                                                                                                                                                                                                                                                                                                                                                                                                                                                              
E|----------------------------------|--------------------------------------|
B|----------------------------------|--------------------------------------|
G|----------------------------------|--------------------------------------|
D|--------------------8-----7-------|------------------------------7---7/8-|
A|---------------8/7--6-----5-----8-|-------------8/7--------------5---5/6-|
E|--5--5--5--5---6/5--------------6-|5--5--5--5---6/5--5--5--5--5----------|

    
                                                                                                                                                                                                                                                                                                                                                                                                                                                                                                                                                                                                                                                                                                                                                                                                                                                                                                                                                                                                                                                                                                                                                                                              
E|----------------------------------|--------------------------|
B|----------------------------------|--------------------------|
G|----------------------------------|--------------------------|
D|--------------------8-----7-------|7--------7--6-----7-------|
A|---------------8/7--6-----5-----8-|5--5--5--5-----5----------|
E|--5--5--5--5---6/5--------------6-|--------------------------|

    
                                                                                                                                                                                                                                                                                                                                                                                                                                                                                                                                                                                                                                                                                                                                                                                                                                                                                                                                                                                                                                                                                                                                                                                              
E|-------------------------------------|--------------------------|
B|-------------------------------------|--------------------------|
G|-------------------------------------|--------------------------|
D|--7-----------------------7----------|7--------7--6-----7-------|
A|--5--5--5--5--7--8--7--8-------------|5--5--5--5-----5----------|
E|-------------------------------------|--------------------------|

    
                                                                                                                                                                                                                                                                                                                                                                                                                                                                                                                                                                                                                                                                                                                                                                                                                                                                                                                                                                                                                                                                                                                                                                                              
E|----------------------------|--------------------------|
B|----------------------------|--------------------------|
G|----------------------------|--------------------------|
D|--7-----------------9-------|7--------7--6-----7-------|
A|--7--------7--6--6--7-------|5--5--5--5-----5----------|
E|--5--5--5--5--4--4----------|--------------------------|

    
                                                                                                                                                                                                                                                                                                                                                                                                                                                                                                                                                                                                                                                                                                                                                                                                                                                                                                                                                                                                                                                                                                                                                                                              
E|-------------------------------------|--------------------------|
B|-------------------------------------|--------------------------|
G|-------------------------------------|7-------------------------|
D|--7-----------------------7----------|7--------7--6-----7-------|
A|--5--5--5--5--5--8--7--8-------------|5--5--5--5-----5----------|
E|-------------------------------------|--------------------------|

    
                                                                                                                                                                                                                                                                                                                                                                                                                                                                                                                                                                                                                                                                                                                                                                                                                                                                                                                                                                                                                                                                                                                                                                                              
E|----------------------------|--------------------------|
B|----------------------------|--------------------------|
G|----------------------------|--------------------------|
D|-----------------7----------|--------------------------|
A|--7--------7--6--5--8-------|------------------4-----4-|
E|--5--5--5--5--4-----6-------|3--3--3--3--3--3-----3----|

    
                                                                                                                                                                                                                                                                                                                                                                                                                                                                                                                                                                                                                                                                                                                                                                                                                                                                                                                                                                                                                                                                                                                                                                                              
E|----------------------------|--------------------------|
B|----------------------------|--------------------------|
G|----------------------------|--------------------------|
D|-----------------8----------|--------------------------|
A|-----------------6-----6----|------------------4-----4-|
E|--3--3--3--3--3--------4----|3--3--3--3--3--3-----3----|

    
                                                                                                                                                                                                                                                                                                                                                                                                                                                                                                                                                                                                                                                                                                                                                                                                                                                                                                                                                                                                                                                                                                                                                                                              
E|-------------------------|--------------------------|
B|-------------------------|--------------------------|
G|-------------------------|--------------------------|
D|--8----------------------|--------------------------|
A|--6-----6-----5-----3----|------------------4-----4-|
E|--------4-----3-----1----|3--3--3--3--3--3-----3----|

    
                                                                                                                                                                                                                                                                                                                                                                                                                                                                                                                                                                                                                                                                                                                                                                                                                                                                                                                                                                                                                                                                                                                                                                                              
E|----------------------------|--------------------------|
B|----------------------------|--------------------------|
G|----------------------------|--------------------------|
D|-----------------8----------|--------------------------|
A|-----------------6-----6----|------------------4-----4-|
E|--3--3--3--3--3--------4----|3--3--3--3--3--3-----3----|

    
                                                                                                                                                                                                                                                                                                                                                                                                                                                                                                                                                                                                                                                                                                                                                                                                                                                                                                                                                                                                                                                                                                                                                                                              
E|-------------------------|-----------------------|
B|-------------------------|-----------------------|
G|-------------------------|-----------------------|
D|--8----------------------|-----------------------|
A|--6-----6-----5-----3----|7-----8--7-----8--7----|
E|--------4-----3-----1----|5-----6--5-----6--5----|

    
                                                                                                                                                                                                                                                                                                                                                                                                                                                                                                                                                                                                                                                                                                                                                                                                                                                                                                                                                                                                                                                                                                                                                                                              
E|-------------------------------------|-----------------------|
B|-------------------------------------|-----------------------|
G|-------------------------------------|-----------------------|
D|-----8-----8-----------7--7----------|-----------------------|
A|--0--6-----6--------0--5--5-----8----|7-----8--7-----8--7----|
E|--------------------------------6----|5-----6--5-----6--5----|

    
                                                                                                                                                                                                                                                                                                                                                                                                                                                                                                                                                                                                                                                                                                                                                                                                                                                                                                                                                                                                                                                                                                                                                                                              
E|-------------------------------------------|-----------------------|
B|-------------------------------------------|-----------------------|
G|-------------------------------------------|-----------------------|
D|-----8-----7-----5-----7-------------------|-----------------------|
A|--0--6-----5-----3-----5-----8-----5-------|7-----8--7-----8--7----|
E|-----------------------------6-----3-------|5-----6--5-----6--5----|

    
                                                                                                                                                                                                                                                                                                                                                                                                                                                                                                                                                                                                                                                                                                                                                                                                                                                                                                                                                                                                                                                                                                                                                                                              
E|-------------------------------------|-----------------------|
B|-------------------------------------|-----------------------|
G|-------------------------------------|-----------------------|
D|-----8-----8-----------7--7----------|-----------------------|
A|--0--6-----6--------0--5--5-----8----|7-----8--7-----8--7----|
E|--------------------------------6----|5-----6--5-----6--5----|

    
                                                                                                                                                                                                                                                                                                                                                                                                                                                                                                                                                                                                                                                                                                                                                                                                                                                                                                                                                                                                                                                                                                                                                                                              
E|-------------------------------------------|--------------------------|
B|-------------------------------------------|--------------------------|
G|-------------------------------------------|--------------------------|
D|-----8-----7-----5-----7-------------------|7--------7--6-----7-------|
A|--0--6-----5-----3-----5-----8-----5-------|5--5--5--5-----5----------|
E|-----------------------------6-----3-------|--------------------------|

    
                                                                                                                                                                                                                                                                                                                                                                                                                                                                                                                                                                                                                                                                                                                                                                                                                                                                                                                                                                                                                                                                                                                                                                                              
E|-------------------------------------|--------------------------|
B|-------------------------------------|--------------------------|
G|-------------------------------------|--------------------------|
D|--7-----------------------7----------|7--------7--6-----7-------|
A|--5--5--5--5--7--8--7--8-------------|5--5--5--5-----5----------|
E|-------------------------------------|--------------------------|

About Punishment for Decadence : Second album by the Swiss thrash metal group Coroner released on 1 August 1988 . It bears many similarities to the previous album, except the band's performance is more precise . All information is taken from the CD liner notes of the 1988 release. It had an affiliation to bands - Punishment for Decadence,Coroner. Its music is influenced by genres - progressive metal , thrash metal.

tabs and chords, guitar tabs, music transcription, music technology, deep learning, music information retrieval, transcribe into tabs & chords, chordify, music renditions, songsterr, reverbnation, tabulature, bollywood chords, ultimate guitar, yousician, guitar lessons, acoustic guitar, electric guitar, guitar tuner, 911 tabs