Guitar Tabs for Se Essa Rua Fosse Minha

(/) Slide Up  (\) Slide Down  (h) Hammer On  (p) Pull Off  (b) Bend (r) Release (v) Vibrato

Tabs for Song : 

Song lyrics here
E|--0--0--5--5--0--------0--3--1--0-----------0--0--7--7--4--0--1--0--8--7--5--------
B|-----------------1-----------------0-----------------------------------------------
G|--------------------2--------------------------------------------------------------
D|-----------------------------------------------------------------------------------
A|--------------------------------------------------0-----------------------0--------
E|--------0-----------------------0--------------------------------------------------

E|--0--0--5--5--8--7--5--3--1--0--3--1--------1--1--0--7--4--0--------------
B|--------------------------------------------------------------3--1--0-----
G|-----------------------------------------------------------------------2--
D|--------------------------------1-----------------------------------------
A|--------------------------------------------------------------------------
E|--------0-----------------------------------------0-----------------------

Song lyrics here
E|--
B|--
G|--
D|--
A|--
E|--

Add more lines by placing cursor below and adding notes
tabs and chords, guitar tabs, music transcription, music technology, deep learning, music information retrieval, transcribe into tabs & chords, chordify, music renditions, songsterr, reverbnation, tabulature, bollywood chords, ultimate guitar, yousician, guitar lessons, acoustic guitar, electric guitar, guitar tuner, 911 tabs