Guitar Tabs for Tum Se

(/) Slide Up  (\) Slide Down  (h) Hammer On  (p) Pull Off  (b) Bend (r) Release (v) Vibrato (x) Muted

Tabs & Chords
BPM : 117.0
Check Track 2 for Chord Positions 

    G#m   E        A                 B                             C#m                     A  
E|--------------------------------------------------------------------------------------------
B|--------0--------0-----------0--0--------------------------------------------------------0--
G|-----------------------------------------------------11-------------------------------------
D|-----------11-------11----11----------------------------------------------------------------
A|--11-12----------------------------12-12-11-11-9-----------11-12-9--11-------11----11-12----
E|--------------------------------------------------------------------------------------------

                         B                 G#m                                    C#m            
E|-----------------------------------------------------------------------------------0--9-----9--
B|-----------------0--0--------------------------------------------------------------------------
G|-----------------------------------------------------------------------------------------------
D|--11----11----11-------------------------------------------------------------------------------
A|-----------------------12-12-11----9-----11-12-9--11----11-11----------------------------------
E|-----------------------------------------------------------------12-11----11----9--------------

       B                    A  
E|-----9-----------------------
B|-----------12----10-9-----0--
G|-----------------------------
D|-----------------------------
A|-----------------------------
E|-----------------------------

Guitar Tabs for Tum Se






    G#m   E        A                 B                             C#m                     A  
E|--4-----0--------0-----------------2-----------------------------4-----------------------0--
B|--4-----0--------2-----------------4-----------------------------5-----------------------2--
G|--4-----1--------2-----------------4-----------------------------6-----------------------2--
D|--6-----2--------2-----------------4-----------------------------6-----------------------2--
A|--6-----2--------0-----------------2-----------------------------4-----------------------0--
E|--4-----0-----------------------------------------------------------------------------------

                         B                 G#m                                    C#m            
E|-----------------------2-----------------4--------------------------------------4--------------
B|-----------------------4-----------------4--------------------------------------5--------------
G|-----------------------4-----------------4--------------------------------------6--------------
D|-----------------------4-----------------6--------------------------------------6--------------
A|-----------------------2-----------------6--------------------------------------4--------------
E|-----------------------------------------4-----------------------------------------------------

       B                    A  
E|-----2--------------------0--
B|-----4--------------------2--
G|-----4--------------------2--
D|-----4--------------------2--
A|-----2--------------------0--
E|-----------------------------

tabs and chords, guitar tabs, music transcription, music technology, deep learning, music information retrieval, transcribe into tabs & chords, chordify, music renditions, songsterr, reverbnation, tabulature, bollywood chords, ultimate guitar, yousician, guitar lessons, acoustic guitar, electric guitar, guitar tuner, 911 tabs