Bass Tabs for School Project

Tabs for Song : Rehab - Amy Winehouse, Mercy - Duffy, Titanium - David Guetta ft. Sia, Radioactive - Imagine Dragons


Rehab Intro (slow)
G|--------------------------------------------------------------------------------------------------
D|--------------------------------------------------------------------------------------------------
A|--5--------5--------2--4--5--------5--------2--4--5--------5--------2--4--5--------5--------2--4--
E|--------------------------------------------------------------------------------------------------

G|--------------------------------------------------------------------------------------------------
D|--------------------------------------------------------------------------------------------------
A|--5--------5--------2--4--5--------5--------2--4--5--------5--------2--4--5--------5--------2--4--
E|--------------------------------------------------------------------------------------------------

G|--------------------------------------------------------------------------------------------------
D|--------------------------------------------------------------------------------------------------
A|--7-----7-----7-----7-----7-----7-----7-----7-----5-----5-----5-----5-----5-----5-----5-----5-----
E|--------------------------------------------------------------------------------------------------

G|--------------------------------------------------
D|--------------------------------------------------
A|--5--------5--------2--4--5--------5--------2--4--
E|--------------------------------------------------

Rehab Intro (fast)
G|--------------------------------------------------
D|--------------------------------------------------
A|--5-----------5--------5--------------------2--4--
E|--------------------------5--5--5--5--5--5--------

Mercy Intro
G|--------------------------------------------------------------------------------------------------
D|--------------------------------------------------------------------------------------------------
A|--5--------5--------2--4--5--------5--------2--4--5--------5--------2--4--5--------5--------2--4--
E|--------------------------------------------------------------------------------------------------

G|--------------------------------------------------------------------------------------------------
D|--------------------------------------------------------------------------------------------------
A|--5--------5--------2--4--5--------5--------2--4--5--------5--------2--4--5--------5--------2--4--
E|--------------------------------------------------------------------------------------------------

Mercy Verse
G|--------------------------------------------------------------------------------------------------
D|--------------------------------------------------------------------------------------------------
A|--5--------5--------2--4--5--------5--------2--4--5--------5--------2--4--5--------5--------2--4--
E|--------------------------------------------------------------------------------------------------

G|--------------------------------------------------------------------------------------------------
D|--------------------------------------------------------------------------------------------------
A|--5--------5--------2--4--5--------5--------2--4--5--------5--------2--4--5--------5--------2--4--
E|--------------------------------------------------------------------------------------------------

G|--------------------------------------------------------------------------------------------------
D|--------------------------------------------------------------------------------------------------
A|--5--------5--------2--4--5--------5--------2--4--5--------5--------2--4--5--------5--------2--4--
E|--------------------------------------------------------------------------------------------------

G|--------------------------------------------------------------------------------------------------
D|--------------------------------------------------------------------------------------------------
A|--7-----7-----7-----7-----7-----7-----7-----7-----5-----5-----5-----5-----5-----5-----5-----5-----
E|--------------------------------------------------------------------------------------------------

G|--------------------------------------------------------------------------------------------------
D|--------------------------------------------------------------------------------------------------
A|--5--------5--------2--4--5--------5--------2--4--5--------5--------2--4--5--------5--------2--4--
E|--------------------------------------------------------------------------------------------------

Rehab Chorus
G|--------------------------------------------------------------------------------------------------
D|--------------------------------------------------------------------------------------------------
A|--5--------5--------2--4--5--------5--------2--4--5--------5--------2--4--5--------5--------2--4--
E|--------------------------------------------------------------------------------------------------

G|--------------------------------------------------------------------------------------------------
D|--------------------------------------------------------------------------------------------------
A|--5--------5--------2--4--5--------5--------2--4--5--------5--------2--4--5--------5--------2--4--
E|--------------------------------------------------------------------------------------------------

G|--------------------------------------------------------------------------------------------------
D|--------------------------------------------------------------------------------------------------
A|--7-----7-----7-----7-----7-----7-----7-----7-----5-----5-----5-----5-----5-----5-----5-----5-----
E|--------------------------------------------------------------------------------------------------

G|--------------------------------------------------------------------------------------------------
D|--------------------------------------------------------------------------------------------------
A|--5--------5--------2--4--5--------5--------2--4--5--------5--------2--4--5--------5--------2--4--
E|--------------------------------------------------------------------------------------------------

Mercy Chorus
G|--------------------------------------------------------------------------------------------------
D|--------------------------------------------------------------------------------------------------
A|--5--------5--------2--4--5--------5--------2--4--5--------5--------2--4--5--------5--------2--4--
E|--------------------------------------------------------------------------------------------------

G|--------------------------------------------------------------------------------------------------
D|--------------------------------------------------------------------------------------------------
A|--5--------5--------2--4--5--------5--------2--4--5--------5--------2--4--5--------5--------2--4--
E|--------------------------------------------------------------------------------------------------

G|--------------------------------------------------------------------------------------------------
D|--------------------------------------------------------------------------------------------------
A|--7-----7-----7-----7-----7-----7-----7-----7-----5-----5-----5-----5-----5-----5-----5-----5-----
E|--------------------------------------------------------------------------------------------------

G|--------------------------------------------------------------------------------------------------
D|--------------------------------------------------------------------------------------------------
A|--5--------5--------2--4--5--------5--------2--4--5--------5--------2--4--5--------5--------2--4--
E|--------------------------------------------------------------------------------------------------

G|--------------------------------------------------------------------------------------------------
D|--------------------------------------------------------------------------------------------------
A|--7-----7-----7-----7-----7-----7-----7-----7-----5-----5-----5-----5-----5-----5-----5-----5-----
E|--------------------------------------------------------------------------------------------------

G|--------------------------------------------------------------------------------------------------
D|--------------------------------------------------------------------------------------------------
A|--5--------5--------2--4--5--------5--------2--4--5--------5--------2--4--5--------5--------2--4--
E|--------------------------------------------------------------------------------------------------

Rehab Verse
G|--------------------------------------------------------------------------------------------------
D|--------------------------------------------------------------------------------------------------
A|--------------------------------------------------2-----2-----2-----2-----2-----2-----2-----2-----
E|--2-----2-----2-----2-----2-----2-----2-----2-----------------------------------------------------

G|--------------------------------------------------------------------------------------------------
D|--------------------------------------------------------------------------------------------------
A|--------------------------------------------------1-----1-----1-----1-----1-----1-----1-----1-----
E|--3-----3-----3-----3-----3-----3-----3-----3-----------------------------------------------------

G|--------------------------------------------------------------------------------------------------
D|--------------------------------------------------------------------------------------------------
A|--------------------------------------------------2-----2-----2-----2-----2-----2-----2-----2-----
E|--2-----2-----2-----2-----2-----2-----2-----2-----------------------------------------------------

G|--------------------------------------------------------------------------------------------------
D|--------------------------------------------------------------------------------------------------
A|--------------------------------------------------1-----1-----1-----1-----1-----1-----1-----1-----
E|--3-----3-----3-----3-----3-----3-----3-----3-----------------------------------------------------

G|--------------------------------------------------------------------------------------------------
D|--------------------------------------------------------------------------------------------------
A|--------------------------------------------------------------------------------------------------
E|--5-----5-----5-----5-----5-----5-----5-----5-----3-----3-----3-----3-----3-----3-----3-----3-----

Rehab Chorus
G|--------------------------------------------------------------------------------------------------
D|--------------------------------------------------------------------------------------------------
A|--5--------5--------2--4--5--------5--------2--4--5--------5--------2--4--5--------5--------2--4--
E|--------------------------------------------------------------------------------------------------

G|--------------------------------------------------------------------------------------------------
D|--------------------------------------------------------------------------------------------------
A|--5--------5--------2--4--5--------5--------2--4--5--------5--------2--4--5--------5--------2--4--
E|--------------------------------------------------------------------------------------------------

G|--------------------------------------------------------------------------------------------------
D|--------------------------------------------------------------------------------------------------
A|--7-----7-----7-----7-----7-----7-----7-----7-----5-----5-----5-----5-----5-----5-----5-----5-----
E|--------------------------------------------------------------------------------------------------

G|--------------------------------------------------------------------------------------------------
D|--------------------------------------------------------------------------------------------------
A|--5--------5--------2--4--5--------5--------2--4--5--------5--------2--4--5--------5--------2--4--
E|--------------------------------------------------------------------------------------------------

Mercy Chorus
G|--------------------------------------------------------------------------------------------------
D|--------------------------------------------------------------------------------------------------
A|--5--------5--------2--4--5--------5--------2--4--5--------5--------2--4--5--------5--------2--4--
E|--------------------------------------------------------------------------------------------------

G|--------------------------------------------------------------------------------------------------
D|--------------------------------------------------------------------------------------------------
A|--5--------5--------2--4--5--------5--------2--4--5--------5--------2--4--5--------5--------2--4--
E|--------------------------------------------------------------------------------------------------

G|--------------------------------------------------------------------------------------------------
D|--------------------------------------------------------------------------------------------------
A|--7-----7-----7-----7-----7-----7-----7-----7-----5-----5-----5-----5-----5-----5-----5-----5-----
E|--------------------------------------------------------------------------------------------------

G|--------------------------------------------------------------------------------------------------
D|--------------------------------------------------------------------------------------------------
A|--5--------5--------2--4--5--------5--------2--4--5--------5--------2--4--5--------5--------2--4--
E|--------------------------------------------------------------------------------------------------

G|--------------------------------------------------------------------------------------------------
D|--------------------------------------------------------------------------------------------------
A|--7-----7-----7-----7-----7-----7-----7-----7-----5-----5-----5-----5-----5-----5-----5-----5-----
E|--------------------------------------------------------------------------------------------------

G|--------------------------------------------------------------------------------------------------
D|--------------------------------------------------------------------------------------------------
A|--5--------5--------2--4--5--------5--------2--4--5--------5--------2--4--5--------5--------2--4--
E|--------------------------------------------------------------------------------------------------

G|--------------------------------------------------------------------------------------------------
D|--------------------------------------------------------------------------------------------------
A|--7-----7-----7-----7-----7-----7-----7-----7-----5-----5-----5-----5-----5-----5-----5-----5-----
E|--------------------------------------------------------------------------------------------------

G|--------------------------------------------------------------------------------------------------
D|--------------------------------------------------------------------------------------------------
A|--5--------5--------2--4--5--------5--------2--4--5--------5--------2--4--5--------5--------2--4--
E|--------------------------------------------------------------------------------------------------

Titanium Intro
G|--------------------------------------------------------------------------------------------------
D|--------------------------------------------------------------------------------------------------
A|--5-----------------------------------------------------------------------------------------------
E|--------------------------5-----------------------7-----------------------7-----------------------

G|--------------------------------------------------------------------------------------------------
D|--------------------------------------------------------------------------------------------------
A|--5-----------------------------------------------------------------------------------------------
E|--------------------------5-----------------------7-----------------------7-----------------------

Titanium Verse
G|--------------------------------------------------------------------------------------------------
D|--------------------------------------------------------------------------------------------------
A|--------------------------------------------------------------------------2-----------------------
E|--3-----------------------5-----------------------2-----------------------------------------------

G|--------------------------------------------------------------------------------------------------
D|--------------------------------------------------------------------------------------------------
A|--------------------------------------------------------------------------2-----------------------
E|--3-----------------------5-----------------------2-----------------------------------------------

G|--------------------------------------------------------------------------------------------------
D|--------------------------------------------------------------------------------------------------
A|--------------------------------------------------------------------------2-----------------------
E|--3-----------------------5-----------------------2-----------------------------------------------

G|--------------------------------------------------------------------------------------------------
D|--------------------------------------------------------------------------------------------------
A|--------------------------------------------------------------------------2-----------------------
E|--3-----------------------5-----------------------2-----------------------------------------------

Radioactive Intro
G|--------------------------------------------------------------------------------------------------
D|--------------------------------------------------------------------------------------------------
A|--------------------------3-----------------------------------------------5-----------------------
E|--5-----------------------------------------------3-----------------------------------------------

Radioactive Verse
G|--------------------------------------------------------------------------------------------------
D|--------------------------------------------------------------------------------------------------
A|--------------------------3-----------------------------------------------5-----------------------
E|--5-----------------------------------------------3-----------------------------------------------

G|--------------------------------------------------------------------------------------------------
D|--------------------------------------------------------------------------------------------------
A|--------------------------3-----------------------------------------------5-----------------------
E|--5-----------------------------------------------3-----------------------------------------------

G|--------------------------------------------------------------------------------------------------
D|--------------------------------------------------------------------------------------------------
A|--------------------------3-----------------------------------------------5-----------------------
E|--5-----------------------------------------------3-----------------------------------------------

G|--------------------------------------------------------------------------------------------------
D|--------------------------------------------------------------------------------------------------
A|--------------------------3-----------------------------------------------5-----------------------
E|--5-----------------------------------------------3-----------------------------------------------

Titanium Bridge
G|--------------------------------------------------------------------------------------------------
D|--------------------------------------------------------------------------------------------------
A|--------------------------3-----------------------------------------------5-----------------------
E|--5-----------------------------------------------3-----------------------------------------------

G|--------------------------------------------------------------------------------------------------
D|--------------------------------------------------------------------------------------------------
A|--------------------------3-----------------------------------------------5-----------------------
E|--5-----------------------------------------------3-----------------------------------------------

Radioactive Chorus
G|--------------------------------------------------------------------------------------------------
D|--------------------------------------------------------------------------------------------------
A|--------------------------3-----------------------------------------------5-----------------------
E|--5-----------------------------------------------3-----------------------------------------------

G|--------------------------------------------------------------------------------------------------
D|--------------------------------------------------------------------------------------------------
A|--------------------------3-----------------------------------------------5-----------------------
E|--5-----------------------------------------------3-----------------------------------------------







Paste any tab in acousterr's tab maker and we'll play it !!!
Now supports capo and sound effects for vibrato/pull-off/hammer/bends/mutes etc !!! Checkout help section
tabs and chords, guitar tabs, music contests, music covers, songsterr, reverbnation, renditions, tabulature, bollywood chords, ultimate guitar, yousician, guitar lessons, torrins, fender, gibson, acoustic guitar, electric guitar, youtube covers, gootar, guitar tuner, A-Z tabs, 911 tabs