Guitar Tabs for Sayonara

(/) Slide Up  (\) Slide Down  (h) Hammer On  (p) Pull Off  (b) Bend (r) Release (v) Vibrato (x) Muted

Tabs for Song : 

Song lyrics here
E|--------------------0-----------------------------------------------0-----------------------------------
B|--------8--------1-----1--------1-----------3-----------8--------1-----1--------1-----------3-----------
G|-----9-----9--2--------------2-----2-----4-----4-----9-----9--2--------------2-----2-----4-----4-----9--
D|--10----------------------3-----------5-----------10----------------------3-----------5-----------10----
A|--------------------------------------------------------------------------------------------------------
E|--------------------------------------------------------------------------------------------------------

E|-----------------------------------------------------------------------------------
B|--8--8--8-----8--6--5--5--6--8--5--------------5-----------------------------------
G|-----------------------------------7-----5--7-----5--------------------------------
D|-----------------------------------------------------5-----------------0-----------
A|--------------------------------------------------------------8--------------------
E|--------------------------------------------------------------------------------6--

Song lyrics here
E|--------------------------------------------------------
B|--8--10-8-----5--6--8--6--5-----------------------4-----
G|-----------------------------7--4--------------------5--
D|-----------------------------------5--------5--4--------
A|-----------------------------------------7--------------
E|--------------------------------------------------------

E|-----------------------------------------------
B|--8--5--6--------------------------------10-8--
G|-----------7--9--5--7--------------------------
D|--------------------------7-----5-----5--------
A|-----------------------------8-----8-----------
E|-----------------------------------------------

Now supports capo and sound effects for vibrato/pull-off/hammer/bends/mutes etc !!! Checkout help section
tabs and chords, guitar tabs, music transcription, music technology, deep learning, music information retrieval, transcribe into tabs & chords, chordify, music renditions, songsterr, reverbnation, tabulature, bollywood chords, ultimate guitar, yousician, guitar lessons, acoustic guitar, electric guitar, guitar tuner, 911 tabs