Say Love - James Tw - Guitar Tabs

(/) Slide Up  (\) Slide Down  (h) Hammer On  (p) Pull Off  (b) Bend (r) Release (v) Vibrato (x) Muted

Tabs for Song : Say Love (Capo 1, transpose -1)
BPM : 200 
capo at 1st fret
Folding down the seats in the back of my car
E|--------------------------------------------
B|--------------------------------------------
G|--2-----0-----------------------------------
D|-----2-----2--0--------0--2--2--------------
A|-----------------3--3-----------------------
E|--------------------------------------------
Got nowhere to be 'cuz the world don't know where we are
E|-----------------------------------------------
B|-----------------------------------------------
G|-----2--0-----0--------------------------------
D|-----------2-----2--0--------0--2--2-----------
A|--3--------------------3--3--------------------
E|-----------------------------------------------

3 AM and you're in my arms. All the drinks still wearing off
E|-----------------------------------------------------
B|--1--0-----------------------------------------------
G|--------2--2--0--2--0--------0--0--------------------
D|-----------------------2-----------3--2-----0--2-----
A|-----------------------------------------3-----------
E|-----------------------------------------------------

You look to me like I've said something wrong, mhm
E|-----------------------------------------------------
B|-----------------------------------------------------
G|-----0--0--------------------------------------------
D|--0--------3--2--0--2--0-----------0-----------------
A|--------------------------3--3--------3--------------
E|-----------------------------------------------------

Because I opened my mouth now we're both just sat in silence
E|-----------------------------------------------------
B|-----------3--------3--1--0-----0-----1--0-----------
G|--0--0--2-----0--0-----------2-----2-----------------
D|-----------------------------------------------------
A|-----------------------------------------------------
E|-----------------------------------------------------

Frozen by three little words
E|-----------------------------------
B|-----3--------3--3--0--------------
G|--2-----0--0-----------------------
D|-----------------------------------
A|-----------------------------------
E|-----------------------------------

And there was something behind those eyes that she was hiding
E|--------------------------------------------------
B|--------------3--------3--0-----0-----1--0--------
G|--0--0--0--2-----0--0--------2-----2--------------
D|--------------------------------------------------
A|--------------------------------------------------
E|--------------------------------------------------

She said: "I don't want this to hurt,"
E|--------------------------------------
B|-----------3--------3--3--------------
G|--0--0--2-----0--0--------------------
D|--------------------------------------
A|--------------------------------------
E|--------------------------------------

"Just don't say love, say love, say love no"
E|--------------------------0--0-----------------
B|-----1--0-----1--1--3--3-----------------------
G|--0--------2--------------------0--------------
D|-----------------------------------------------
A|-----------------------------------------------
E|-----------------------------------------------

"I've heard that word misused a thousand times before"
E|--------------------------0--0-----0--------------
B|-----1--0-----1--1--3--3--------3-----------------
G|--0--------2--------------------------------------
D|--------------------------------------------------
A|--------------------------------------------------
E|--------------------------------------------------

"Know that we don't have to dive in, 'cuz we got all of the time in the world"
E|--------0--3--1--0-----0-----------0--3--1--0--------0-----------------
B|--1--3--------------3--------1--3--------------3--1-----3--------------
G|-----------------------------------------------------------------------
D|-----------------------------------------------------------------------
A|-----------------------------------------------------------------------
E|-----------------------------------------------------------------------

"To say love, say love, say love, say love"
E|--------------0--0-----------------------
B|--1-----1--1-----------3--1--------------
G|-----2-----------------------------------
D|-----------------------------------------
A|-----------------------------------------
E|-----------------------------------------
Heart dissapeared from my sleeve, I should've known
E|-----------------------------------------
B|-----------------------------------------
G|--2--0-----0-----------------------------
D|--------2-----2--0--0-----0--2--2--------
A|-----------------------3-----------------
E|-----------------------------------------
It's still way too early to see where this could go
E|-----------------------------------------------
B|-----------------------------------------------
G|--------2--0-----0-----------0-----------------
D|-----0--------2-----2--0--0-----3--2--2--------
A|--3--------------------------------------------
E|-----------------------------------------------
She said:"I'm not trynna be difficult and I've never felt this before,"
E|--------------------------------------------------------------
B|--------1--0--------------------------------------------------
G|-----0--------2--2--0--2--0--------------0--------------------
D|--2--------------------------2--------2-----3--3--2-----0--2--
A|-----------------------------------3-----------------3--------
E|--------------------------------------------------------------
"And I'm scared we might lose it all, mhm."
E|--------------------------------------------------
B|--------------------------------------------------
G|--------0-----------------------------------------
D|-----------2--2--0--2--0--------0-----------------
A|-----3--------------------3--------3--------------
E|--------------------------------------------------
Enclosed in that moment I found a silver lining,
E|-----------------------------------------------
B|--------3--------3--1--0-----0-----1--0--------
G|--0--2-----0--2-----------2-----2--------------
D|-----------------------------------------------
A|-----------------------------------------------
E|-----------------------------------------------
All I've been looking for
E|--------------------------------
B|-----3--------3--0--------------
G|--2-----2--0--------------------
D|--------------------------------
A|--------------------------------
E|--------------------------------
Because there was something behind those eyes that she was hiding
E|--------------------------------------------------------
B|--------------3--------3--0-----0-----1--0--------------
G|--0--0--0--2-----0--0--------2-----2--------------------
D|--------------------------------------------------------
A|--------------------------------------------------------
E|--------------------------------------------------------
She said: "It's nothing personal"
E|--------------------------------------
B|-----------3--------3--3--------------
G|--0--0--2-----0--0--------------------
D|--------------------------------------
A|--------------------------------------
E|--------------------------------------
(Chorus)
E|--
B|--
G|--
D|--
A|--
E|--
I'm not gonna run away
E|--1--0--------0--------0--------
B|--------3--1-----1--3-----------
G|--------------------------------
D|--------------------------------
A|--------------------------------
E|--------------------------------
I'm not the type to leave ya on your own, on your own, all on your
E|--------0--0--------------------------------------------------
B|--1--3--------3--1--------------------------------------------
G|--------------------2-----0--2--------0--2--------0--2--------
D|-----------------------2--------2--2--------2--2--------------
A|--------------------------------------------------------------
E|--------------------------------------------------------------
I finally get what you're trynna say...
E|-----1--0--------0--------0--------
B|--3--------3--1-----1--3-----------
G|-----------------------------------
D|-----------------------------------
A|-----------------------------------
E|-----------------------------------
(Chorus x2)
E|--
B|--
G|--
D|--
A|--
E|--



























About James TW - James TW is English singer-songwriter . His single "When You Love Someone" peaked at number 28 on the Billboard Adult Pop Songs chart . James was named after James Taylor, one of his parents' favourite musicians . He attended Warwick School, the oldest private boys school in England . James' father plays guitar in a wedding band as a hobby . He picked up guitar at 12 years old and started playing piano the following year . In 2010, James started his YouTube channel at 12 . James TW's most popular songs include - When You Love Someone. James TW's music is influenced by genre(s) - pop.

tabs and chords, guitar tabs, music transcription, music technology, deep learning, music information retrieval, transcribe into tabs & chords, chordify, music renditions, songsterr, reverbnation, tabulature, bollywood chords, ultimate guitar, yousician, guitar lessons, acoustic guitar, electric guitar, guitar tuner, 911 tabs