Guitar Tabs for Say Love - James Tw

(/) Slide Up  (\) Slide Down  (h) Hammer On  (p) Pull Off  (b) Bend (r) Release (v) Vibrato (x) Muted

Tabs for Song : Say Love (Capo 1, transpose -1)
BPM : 120
Folding down the seats in the back of my car
E|--------------------------------------------
B|--------------------------------------------
G|--3-----1-----------------------------------
D|-----3-----3--1--------1--3--3--------------
A|-----------------4--4-----------------------
E|--------------------------------------------
Got nowhere to be 'cuz the world don't know where we are
E|-----------------------------------------------
B|-----------------------------------------------
G|-----3--1-----1--------------------------------
D|-----------3-----3--1--------1--3--3-----------
A|--4--------------------4--4--------------------
E|-----------------------------------------------

3 AM and you're in my arms. All the drinks still wearing off
E|-----------------------------------------------------
B|--2--1-----------------------------------------------
G|--------3--3--1--3--1--------1--1--------------------
D|-----------------------3-----------4--3-----1--3-----
A|-----------------------------------------4-----------
E|-----------------------------------------------------

You look to me like I've said something wrong, mhm
E|-----------------------------------------------------
B|-----------------------------------------------------
G|-----1--1--------------------------------------------
D|--1--------4--3--1--3--1-----------1-----------------
A|--------------------------4--4--------4--------------
E|-----------------------------------------------------

Because I opened my mouth now we're both just sat in silence
E|-----------------------------------------------------
B|-----------4--------4--2--1-----1-----2--1-----------
G|--1--1--3-----1--1-----------3-----3-----------------
D|-----------------------------------------------------
A|-----------------------------------------------------
E|-----------------------------------------------------

Frozen by three little words
E|-----------------------------------
B|-----4--------4--4--1--------------
G|--3-----1--1-----------------------
D|-----------------------------------
A|-----------------------------------
E|-----------------------------------

And there was something behind those eyes that she was hiding
E|--------------------------------------------------
B|--------------4--------4--1-----1-----2--1--------
G|--1--1--1--3-----1--1--------3-----3--------------
D|--------------------------------------------------
A|--------------------------------------------------
E|--------------------------------------------------

She said: "I don't want this to hurt,"
E|--------------------------------------
B|-----------4--------4--4--------------
G|--1--1--3-----1--1--------------------
D|--------------------------------------
A|--------------------------------------
E|--------------------------------------

"Just don't say love, say love, say love no"
E|--------------------------1--1-----------------
B|-----2--1-----2--2--4--4-----------------------
G|--1--------3--------------------1--------------
D|-----------------------------------------------
A|-----------------------------------------------
E|-----------------------------------------------

"I've heard that word misused a thousand times before"
E|--------------------------1--1-----1--------------
B|-----2--1-----2--2--4--4--------4-----------------
G|--1--------3--------------------------------------
D|--------------------------------------------------
A|--------------------------------------------------
E|--------------------------------------------------

"Know that we don't have to dive in, 'cuz we got all of the time in the world"
E|--------1--4--2--1-----1-----------1--4--2--1--------1-----------------
B|--2--4--------------4--------2--4--------------4--2-----4--------------
G|-----------------------------------------------------------------------
D|-----------------------------------------------------------------------
A|-----------------------------------------------------------------------
E|-----------------------------------------------------------------------

"To say love, say love, say love, say love"
E|--------------1--1-----------------------
B|--2-----2--2-----------4--2--------------
G|-----3-----------------------------------
D|-----------------------------------------
A|-----------------------------------------
E|-----------------------------------------
Heart dissapeared from my sleeve, I should've known
E|-----------------------------------------
B|-----------------------------------------
G|--3--1-----1-----------------------------
D|--------3-----3--1--1-----1--3--3--------
A|-----------------------4-----------------
E|-----------------------------------------
It's still way too early to see where this could go
E|-----------------------------------------------
B|-----------------------------------------------
G|--------3--1-----1-----------1-----------------
D|-----1--------3-----3--1--1-----4--3--3--------
A|--4--------------------------------------------
E|-----------------------------------------------
She said:"I'm not trynna be difficult and I've never felt this before,"
E|--------------------------------------------------------------
B|--------2--1--------------------------------------------------
G|-----1--------3--3--1--3--1--------------1--------------------
D|--3--------------------------3--------3-----4--4--3-----1--3--
A|-----------------------------------4-----------------4--------
E|--------------------------------------------------------------
"And I'm scared we might lose it all, mhm."
E|--------------------------------------------------
B|--------------------------------------------------
G|--------1-----------------------------------------
D|-----------3--3--1--3--1--------1-----------------
A|-----4--------------------4--------4--------------
E|--------------------------------------------------
Enclosed in that moment I found a silver lining,
E|-----------------------------------------------
B|--------4--------4--2--1-----1-----2--1--------
G|--1--3-----1--3-----------3-----3--------------
D|-----------------------------------------------
A|-----------------------------------------------
E|-----------------------------------------------
All I've been looking for
E|--------------------------------
B|-----4--------4--1--------------
G|--3-----3--1--------------------
D|--------------------------------
A|--------------------------------
E|--------------------------------
Because there was something behind those eyes that she was hiding
E|--------------------------------------------------------
B|--------------4--------4--1-----1-----2--1--------------
G|--1--1--1--3-----1--1--------3-----3--------------------
D|--------------------------------------------------------
A|--------------------------------------------------------
E|--------------------------------------------------------
She said: "It's nothing personal"
E|--------------------------------------
B|-----------4--------4--4--------------
G|--1--1--3-----1--1--------------------
D|--------------------------------------
A|--------------------------------------
E|--------------------------------------
(Chorus)
E|--
B|--
G|--
D|--
A|--
E|--
I'm not gonna run away
E|--2--1--------1--------1--------
B|--------4--2-----2--4-----------
G|--------------------------------
D|--------------------------------
A|--------------------------------
E|--------------------------------
I'm not the type to leave ya on your own, on your own, all on your
E|--------1--1--------------------------------------------------
B|--2--4--------4--2--------------------------------------------
G|--------------------3-----1--3--------1--3--------1--3--------
D|-----------------------3--------3--3--------3--3--------------
A|--------------------------------------------------------------
E|--------------------------------------------------------------
I finally get what you're trynna say...
E|-----2--1--------1--------1--------
B|--4--------4--2-----2--4-----------
G|-----------------------------------
D|-----------------------------------
A|-----------------------------------
E|-----------------------------------
(Chorus x2)
E|--
B|--
G|--
D|--
A|--
E|--


























tabs and chords, guitar tabs, music transcription, music technology, deep learning, music information retrieval, transcribe into tabs & chords, chordify, music renditions, songsterr, reverbnation, tabulature, bollywood chords, ultimate guitar, yousician, guitar lessons, acoustic guitar, electric guitar, guitar tuner, 911 tabs