Guitar Tabs for Say You Won't Let Go (james Arthur) | Fingerstyle Guitar

(/) Slide Up  (\) Slide Down  (h) Hammer On  (p) Pull Off  (b) Bend (r) Release (v) Vibrato

Tabs for Song : 
Capo 3rd Fret
*Work in progress*
E|-----------------------------------------------------------------
B|-----3--0-----------3-----0------------------3--0----------------
G|-----0--0-----0-----0-----0---------0h2------0--0-----0----------
D|---------------------------------0-------------------------------
A|-----------------------------------------------------------------
E|--3-----3--3-----2--------2--2------------0-----0--0-------------

E|-----------------------------------------------------------------
B|-----1--1---------1p0-----3--0-----------3--0--------------------
G|-----0--0-----0-----------0--0-----0-----0--0---------0h2--------
D|--------------------------------------------------0--------------
A|--3-----3--3-----------------------------------------------------
E|-----------------------3-----3--3-----2-----2--2-----------------

E|-----------------------------------------------------------------
B|-----3--0--------5--3--1-----3--3--0--0-----------3--3--0--0-----
G|-----0--0-----0--------------0--0--------2--0-----0--0-----------
D|-----------------------------------------------------------------
A|-----------------3-----3-----------------------------------------
E|--0-----0--0--------------3--------------------2-----------------

E|-----------------------------------------------------------------
B|-----3--3--0--0-----------1---1p0---1---p0-----3--3--0--0--------
G|-----0--0--------2--0-----0---0-----0----------0--0--------2--0--
D|-----------------------------------------------------------------
A|-----------------------3-----------------------------------------
E|--0----------------------------------3------3--------------------

E|-----------------------------------------------------------------
B|------3/5--0--0-----------3--3--0--0-----------1---1p0---1p0-----
G|------0----------2--------0--0--------2--0-----0---0-----0-------
D|-----------------------------------------------------------------
A|--------------------------------------------3--------------------
E|--2-----------2--------0-----------------------------------------

E|---------------------------------
B|---------------------------------
G|---------------0------0-----0h2--
D|------0h2--------0h2-------------
A|-----------X----------------X----
E|--3--------X-----3----------X----

Song lyrics here
E|--
B|--
G|--
D|--
A|--
E|--

Song lyrics here
E|--
B|--
G|--
D|--
A|--
E|--

Add more lines by placing cursor below and adding notes
tabs and chords, guitar tabs, music contests, music covers, songsterr, reverbnation, renditions, tabulature, bollywood chords, ultimate guitar, yousician, guitar lessons, torrins, fender, gibson, acoustic guitar, electric guitar, youtube covers, gootar, guitar tuner, A-Z tabs, 911 tabs