Guitar Tabs for Saturday Nights - Khalid

Saturday Nights - Khalid

Standard Tuning
Capo: 3rd fret

[Intro]

       G/C      G          Em/B
e|--------------------x--------------------------x--|
B|--------------------x--------------------------x--|
G|--------0--------0--x--------0------------0----x--|
D|------2--------0----x------5------------4---4--x--|
A|----3--------2------x----7------------5--------x--|
E|--3--------3--------x--7------------5----------x--|   x2


Verse

     G/C         G        Em/B                         G/C        G              Em
e|--------------------x--------------------------x------------------------------------x------------|
B|--------------------x--------------------------x-----------------0------------------x--------0---|
G|--------0--------0--x--------0----------0------x--------0------------0-----------0--x------------|
D|------2--------0----x------5----------4---4----x------2--------0-----0---------5----x------4-----|
A|----3--------2------x----7----------5-------5--x----3--------2---------------7------x----5-------|
E|--3--------3--------x--7----------5------------x--3--------3---------------7--------x--5---------| 


     G/C         G        Em                         G/C        G              Em
e|--------------------x--------------------------x--------------------x---------------x------------|
B|--------------------x--------------------------x--------------------x---------------x--------0---|
G|--------0--------0--x--------0----------0------x--------0--------0--x------------0--x------------|
D|------2--------0----x------5----------4---4----x------2--------0----x----------5----x------4-----|
A|----3--------2------x----7----------5-------5--x----3--------2------x--------7------x----5-------|
E|--3--------3--------x--7----------5------------x--3--------3--------x------7--------x--5---------|


     G/C         G        Em/B                         G/C        G              Em
e|--------------------x--------------------------x------------------------------------x------------|
B|--------------------x--------------------------x-----------------0------------------x--------0---|
G|--------0--------0--x--------0----------0------x--------0------------0-----------0--x------------|
D|------2--------0----x------5----------4---4----x------2--------0-----0---------5----x------4-----|
A|----3--------2------x----7----------5-------5--x----3--------2---------------7------x----5-------|
E|--3--------3--------x--7----------5------------x--3--------3---------------7--------x--5---------| 


[Chorus]

    C      G         Em     D .       C     Strum       G        Em     Strum      D                                               
e|--------------------------------------------x---------------------------x-----------|
B|--------------------------------------------x---------------------------x-----------|
G|--5------2---------0------7-----------0-----x---------2-----------0-----x--------7--|
D|--5------5---------2------7---------2---2---2---------5---------2---2---2--------7--|
A|--3------5---------2------5---------3-------3---------5---------2-------2--------5--|
E|--3------3---------0------5-----------------x---------3-----------------x--------5--|



    C     Strum       G        Em     Strum      D        C     Strum       G        Em     Strum      D                                            
e|----------x---------------------------x-------------------------x---------------------------x-----------|
B|----------x---------------------------x-------------------------x---------------------------x-----------|
G|----0-----x---------2-----------0-----x--------7----------0-----x---------2-----------0-----x--------7--|
D|--2---2---2---------5---------2---2---2--------7--------2---2---2---------5---------2---2---2--------7--|
A|--3-------3---------5---------2-------2--------5--------3-------3---------5---------2-------2--------5--|
E|----------x---------3-----------------x--------5----------------x---------3-----------------x--------5--|


[Transition from Chorus back to Verse (Same as Intro)]

       G/C      G          Em/B
e|--------------------x--------------------------x--|
B|--------------------x--------------------------x--|
G|--------0--------0--x--------0------------0----x--|
D|------2--------0----x------5------------4---4--x--|
A|----3--------2------x----7------------5--------x--|
E|--3--------3--------x--7------------5----------x--|   x2


[Verse 2]

     G/C         G        Em/B                         G/C        G              Em
e|--------------------x--------------------------x------------------------------------x------------|
B|--------------------x--------------------------x-----------------0------------------x--------0---|
G|--------0--------0--x--------0----------0------x--------0------------0-----------0--x------------|
D|------2--------0----x------5----------4---4----x------2--------0-----0---------5----x------4-----|
A|----3--------2------x----7----------5-------5--x----3--------2---------------7------x----5-------|
E|--3--------3--------x--7----------5------------x--3--------3---------------7--------x--5---------|  x3


[Chorus 2]

     G/C         G        Em                         G/C        G              Em
e|--------------------x--------------------------x---------------------x--------------x-----------|
B|--------------------x--------------------------x---------------------x--------------x--------0--|
G|--------0--------0--x--------0----------0------x--------0--------0---x-----------0--x-----------|
D|------2--------0----x------5----------4---4----x------2--------0-----x---------5----x------4----|
A|----3--------2------x----7----------5-------5--x----3--------2-------x-------7------x----5------|
E|--3--------3--------x--7----------5------------x--3--------3---------x-----7--------x--5--------| x2


[Bridge]

    C      G         Em     D .        C     Strum       G        Em     Strum      D                                               
e|--------------------------------------------x---------------------------x-----------|
B|--------------------------------------------x---------------------------x-----------|
G|--5------2---------0------7-----------0-----x---------2-----------0-----x--------7--|
D|--5------5---------2------7---------2---2---2---------5---------2---2---2--------7--|
A|--3------5---------2------5---------3-------3---------5---------2-------2--------5--|
E|--3------3---------0------5-----------------x---------3-----------------x--------5--|


    C     Strum       G        Em     Strum      D        C     Strum       G        Em     Strum      D                                            
e|----------x---------------------------x-------------------------x---------------------------x-----------|
B|----------x---------------------------x-------------------------x---------------------------x-----------|
G|----0-----x---------2-----------0-----x--------7----------0-----x---------2-----------0-----x--------7--|
D|--2---2---2---------5---------2---2---2--------7--------2---2---2---------5---------2---2---2--------7--|
A|--3-------3---------5---------2-------2--------5--------3-------3---------5---------2-------2--------5--|
E|----------x---------3-----------------x--------5----------------x---------3-----------------x--------5--|


[Chorus 3]

    C      G         Em     D .        C     Strum       G        Em     Strum      D                                               
e|--------------------------------------------x---------------------------x-----------|
B|--------------------------------------------x---------------------------x-----------|
G|--5------2---------0------7-----------0-----x---------2-----------0-----x--------7--|
D|--5------5---------2------7---------2---2---2---------5---------2---2---2--------7--|
A|--3------5---------2------5---------3-------3---------5---------2-------2--------5--|
E|--3------3---------0------5-----------------x---------3-----------------x--------5--|


     G/C         G        Em/B                         G/C        G              Em
e|--------------------x--------------------------x------------------------------------x------------|
B|--------------------x--------------------------x-----------------0------------------x--------0---|
G|--------0--------0--x--------0----------0------x--------0------------0-----------0--x------------|
D|------2--------0----x------5----------4---4----x------2--------0-----0---------5----x------4-----|
A|----3--------2------x----7----------5-------5--x----3--------2---------------7------x----5-------|
E|--3--------3--------x--7----------5------------x--3--------3---------------7--------x--5---------|


[Outro]

    C      G         Em     D         C     Strum       G        Em     Strum      D                                               
e|--------------------------------------------x---------------------------x-----------|
B|--------------------------------------------x---------------------------x-----------|
G|--5------2---------0------7-----------0-----x---------2-----------0-----x--------7--|
D|--5------5---------2------7---------2---2---2---------5---------2---2---2--------7--|
A|--3------5---------2------5---------3-------3---------5---------2-------2--------5--|
E|--3------3---------0------5-----------------x---------3-----------------x--------5--|


    C     Strum       G        Em     Strum      D        C     Strum       G        Em     Strum      D                                            
e|----------x---------------------------x-------------------------x---------------------------x-----------|
B|----------x---------------------------x-------------------------x---------------------------x-----------|
G|----0-----x---------2-----------0-----x--------7----------0-----x---------2-----------0-----x--------7--|
D|--2---2---2---------5---------2---2---2--------7--------2---2---2---------5---------2---2---2--------7--|
A|--3-------3---------5---------2-------2--------5--------3-------3---------5---------2-------2--------5--|
E|----------x---------3-----------------x--------5----------------x---------3-----------------x--------5--|


***********************************

| x       Dead note
| Strum   Powerchord

***********************************
tabs and chords, guitar tabs, music transcription, music technology, deep learning, music information retrieval, transcribe into tabs & chords, chordify, music renditions, songsterr, reverbnation, tabulature, bollywood chords, ultimate guitar, yousician, guitar lessons, acoustic guitar, electric guitar, guitar tuner, 911 tabs