Guitar Tabs for Commentary Nights

(/) Slide Up  (\) Slide Down  (h) Hammer On  (p) Pull Off  (b) Bend (r) Release (v) Vibrato (x) Muted

Commentary Nights : E Standard (Capo 1)
BPM : 114

Main Progression (Verse 1  2)
E|--------5-----2--------------2--------------7--7-----------7--------------
B|--------5-----3-----------3-----3-----------8--7--------7-----7-----------
G|--------5-----4--------4-----------4---7h9--9--7-----7-----------7--------
D|---5----5-----4-----4------------------7h9--9--7--7-----------------7-----
A|---5h7--7-----2--2---------------------7-7--7--9--------------------------
E|---5----5--------------------------------------7--------------------------

Chrous
E|---5----5--5--5--5--5--2--2--2--2--2--2--
B|---5----5--5--5--5--5--3--3--3--3--3--3--
G|---5----5--5--5--5--5--4--4--4--4--4--4--
D|---5----5--5--5--5--5--4--4--4--4--4--4--
A|---5b---7--7--7--7--7--2--2--2--2--2--2--
E|---5----5--5--5--5--5--------------------

Lead Guitar Chorus
E|-----------0-----0--------------0-----0--------------0-----0--------------0-----0-----
B|--------0-----------0--------0-----------0--------3-----------3--------3-----------3--
G|-----0--------------------0--------------------4--------------------4-----------------
D|--2-----------2--------2-----------2--------4-----------4--------4-----------4--------
A|--------------------------------------------------------------------------------------
E|--------------------------------------------------------------------------------------

Breakdown/Outro
E|-----------7--7--7--7--7--7--7-----------7--7--7--7--7--7--7--7--
B|-----------8--8--8--7--7--7--7-----------8--8--8--7--7--7--7--7--
G|-----------9--9--9--7--7--7--7-----------9--9--9--7--7--7--7--7--
D|-----------9--9--9--9--9--9--9-----------9--9--9--9--9--9--9--9--
A|--7--7--7--7--7--7--0--0--0--0--7--7--7--7--7--7--0--0--0--0--0--
E|--0--0--0--0--0--0--0--0--0--0--0--0--0--0--0--0--0--0--0--0--0--

Breakdown/Outro Cont
E|-----------7--7--7--7--7--7--7--5--5--5--5--5--2--2--2--2--2--
B|-----------8--8--8--7--7--7--7--5--5--5--5--5--3--3--3--3--3--
G|-----------9--9--9--7--7--7--7--5--5--5--5--5--4--4--4--4--4--
D|-----------9--9--9--9--9--9--9--5--5--5--5--5--4--4--4--4--4--
A|--7--7--7--7--7--7--0--0--0--0--7--7--7--7--7--2--2--2--2--2--
E|--0--0--0--0--0--0--0--0--0--0--5--5--5--5--5-----------------

Breeakdown/Outro Cont (No One Who Can Tell)
E|--5--5--5--5--5--5--2--2--2--2--
B|--5--5--5--5--5--5--3--3--3--3--
G|--5--5--5--5--5--5--4--4--4--4--
D|--5--5--5--5--5--5--4--4--4--4--
A|--7--7--7--7--7--7--2--2--2--2--
E|--5--5--5--5--5--5--------------

Breakdown Lead Guitar
E|---------------3p0-----0-----------0-----0------------------3p0-----0--------------------------
B|--------0-----------0-----------3-----3-----3--------0-----------0-----------3-----------------
G|-----0-----0-----------------4--------------------0-----0-----------------4-----4---4b-4b4--4--
D|--2-----------------------0--------------------2-----------------------0-----------------------
A|-----------------------------------------------------------------------------------------------
E|-----------------------------------------------------------------------------------------------

Breakdown LG Cont.
E|---------------3p0-----0-----------0-----0---------------7p5-----5-----------------------
B|--------0-----------0-----------3-----3-----------5-----------5-----------0--0---0b0--0--
G|-----0-----0-----------------4-----------------5-----5-----------------4-----4---4b4--4--
D|--2-----------------------0-----------------7-----------------------5--------------------
A|-----------------------------------------------------------------------------------------
E|-----------------------------------------------------------------------------------------

E|---------------7p5-----5-----------3-----3------------------7p5-----5--------------------------
B|--------5-----------5-----------0-----0-----0--------5-----------5-----------0--0---0b-0b0--0--
G|-----5-----5-----------------4--------------------5-----5-----------------4-----4---4b-4b4--4--
D|--7-----------------------5--------------------7-----------------------5-----------------------
A|-----------------------------------------------------------------------------------------------
E|-----------------------------------------------------------------------------------------------

Use manual mode to free up cursor. Paste any tab in acousterr tab maker and we'll play it !!!
tabs and chords, guitar tabs, music transcription, music technology, deep learning, music information retrieval, transcribe into tabs & chords, chordify, music renditions, songsterr, reverbnation, tabulature, bollywood chords, ultimate guitar, yousician, guitar lessons, acoustic guitar, electric guitar, guitar tuner, 911 tabs