Guitar Tabs for Sample Music

(/) Slide Up  (\) Slide Down  (h) Hammer On  (p) Pull Off  (b) Bend (r) Release (v) Vibrato (x) Muted

Tabs & Chords
BPM : 49.0
Check Track 2 for Chord Positions 

                            C#                                           B                    
E|--19-20-14----15----16----------------------------------------------------------------------
B|--------------------------------------------------------------------------------------------
G|--------------------------------------------13----13----13----14-13----13-16----16-16----14-
D|--------------------------------------------------------------------------------------------
A|--------------------------------------------------------------------------------------------
E|--------------------------9-----4-----4-----------------------------------------------------

    E     F#          F#m   
E|--------------------------
B|--------------------------
G|--13----------------14----
D|--------16----16----------
A|--------------------------
E|-----------------------9--

Guitar Tabs for Sample Music






                            C#                                           B                    
E|--------------------------4--------------------------------------------2--------------------
B|--------------------------6--------------------------------------------4--------------------
G|--------------------------6--------------------------------------------4--------------------
D|--------------------------6--------------------------------------------4--------------------
A|--------------------------4--------------------------------------------2--------------------
E|--------------------------------------------------------------------------------------------

    E     F#          F#m   
E|--0-----2-----------2-----
B|--0-----2-----------2-----
G|--1-----3-----------2-----
D|--2-----4-----------4-----
A|--2-----4-----------4-----
E|--0-----2-----------2-----

tabs and chords, guitar tabs, music transcription, music technology, deep learning, music information retrieval, transcribe into tabs & chords, chordify, music renditions, songsterr, reverbnation, tabulature, bollywood chords, ultimate guitar, yousician, guitar lessons, acoustic guitar, electric guitar, guitar tuner, 911 tabs