Guitar Tabs for Samane yeh kaun aaya

Tabs for Song : Samane yeh kaun aaya

Samane yeh kaun aaya
E|-----------------------------
B|-----------------------------
G|--------0-----------2--0-----
D|-----2-----2--3--3-----------
A|--3--------------------------
E|-----------------------------

Dil me huyi halchal
E|-----------------------
B|-----------------------
G|--0--0--0--0--0--0-----
D|-----------------------
A|-----------------------
E|-----------------------

Dekh ke bas ek hi jalak
E|--------------------------------
B|--------------------------------
G|--------0-----------2--0--0-----
D|-----2-----2--3--3--------------
A|--3-----------------------------
E|--------------------------------
Ho gaye ham pagal

E|--------------------------
B|--------------------------
G|--------------------------
D|--2--2--------------------
A|--------3--5--5--3--3-----
E|--------------------------

aree baate mulakaate
E|-----------------------------------
B|--1--1--1--0--0--0--0--------------
G|-----------------------2--2--2-----
D|-----------------------------------
A|-----------------------------------
E|-----------------------------------

Hamse bhi toh hogi
E|-----------------------
B|--1--------------------
G|-----2--2--------------
D|-----------2--2--2-----
A|-----------------------
E|-----------------------

aree hamse khulenge
E|--------------------------------
B|--0--0--0-----------------------
G|-----------2--2--2--2--0--0--0--
D|--------------------------------
A|--------------------------------
E|--------------------------------

Woh aaj nahi toh kal
E|--------------------------
B|--------------------------
G|--------------2--0--0-----
D|--2--2--2--3--------------
A|--------------------------
E|--------------------------

tabs and chords, guitar tabs, music transcription, music technology, deep learning, music information retrieval, transcribe into tabs & chords, chordify, music renditions, songsterr, reverbnation, tabulature, bollywood chords, ultimate guitar, yousician, guitar lessons, acoustic guitar, electric guitar, guitar tuner, 911 tabs