Guitar Tabs for Kaun Tujhe

(/) Slide Up  (\) Slide Down  (h) Hammer On  (p) Pull Off  (b) Bend (r) Release (v) Vibrato (x) Muted

Tabs for Song : kaun tujhe
BPM : 200

 tu aata hai seene mein
E|--------------------------------------------
B|-----10----11-10----------------------------
G|-----------------12----10\9---9h10-10/12-12-
D|--------------------------------------------
A|--------------------------------------------
E|--------------------------------------------

 jab jab saansein bhatr ti hoon
E|--------------------------------------------
B|-----------10-------------------------------
G|-----12-------12-10----9------7h9---9/10-10-
D|--------------------------------------------
A|--------------------------------------------
E|--------------------------------------------

hawaa ke jaise chalta hai tu
E|-----------------------------------------------
B|--10-10h11-10----------------------------------
G|--------------12----10\9---9h10-10/12-12-------
D|--------------------------------------------10-
A|-----------------------------------------------
E|-----------------------------------------------
main ret jaisi udti hoon
E|--------------------------------------------
B|-----10-11----10----------------------------
G|-----------------12----10\9---9h10-10/12-12-
D|--------------------------------------------
A|--------------------------------------------
E|--------------------------------------------
kaun tujhe yun pyar karega
E|-----10-------------------------------------------
B|-----------10-10-10-------------------------------
G|-----------------------12-10--9h10-10/12-12-------
D|-----------------------------------------------10-
A|--------------------------------------------------
E|--------------------------------------------------
jaise main karti hoon
E|--------------------------------------------
B|--------------------------------------------
G|-----12h14-12h14-12----9--10-9-----7-----7--
D|--------------------------------------------
A|--------------------------------------------
E|--------------------------------------------
hoo...... hoo.....
E|-----------------------------------------------------------------------------------
B|--------------8--10/11-11-10-8------5h-6p5-----------------------8--10----5--6-----
G|-----7--9--10-------------------------------7--5-----5--7--9--10----------------7--
D|-----------------------------------------------------------------------------------
A|-----------------------------------------------------------------------------------
E|-----------------------------------------------------------------------------------
meri nazar ka safar           tujhpe hi aake ruke
E|--------------------------------------------------------------
B|--------10-8--10----6-----5--6--------10-8--10----6-----5--8--
G|-----7-----------------------------7--------------------------
D|--------------------------------------------------------------
A|--------------------------------------------------------------
E|--------------------------------------------------------------
meri nigaahein hai             teri nigahon ke        tujhe khabar kay obekhabar 
E|--------------13-12----10----------------------10-8-----6-----------------------------------------------
B|-----10-11-------------------10-------8--10-------------------6--------6--8--11-10----8--6---6/8--6--5--
G|--------------------------------------------------------------------------------------------------------
D|--------------------------------------------------------------------------------------------------------
A|--------------------------------------------------------------------------------------------------------
E|--------------------------------------------------------------------------------------------------------
tabs and chords, guitar tabs, music transcription, music technology, deep learning, music information retrieval, transcribe into tabs & chords, chordify, music renditions, songsterr, reverbnation, tabulature, bollywood chords, ultimate guitar, yousician, guitar lessons, acoustic guitar, electric guitar, guitar tuner, 911 tabs