Guitar Tabs for Naruto: Sadness And Sorrow (fingerstyle)

Song: Sadness and Sorrow (Naruto) 
Composed by Toshio Masuda
Probalby arranged by "Guitar Lessons for Beginners" https://www.youtube.com/channel/UCLivenxvW53IrpLeTSDlQzA

(\) Slide Down  
(h) Hammer On  
(p) Pull Off

------------>>>>>>>>>>>>>>>>Also, adjust the Tempo with the slider on the right!<<<<<<<<<<<<<<<<------------


 
E|--------------------------------------------------------------------------------------5--7-----------------
B|--------7-----------5--------------5-----------3-----------------3-----------1-----5--------------7--------
G|-----0--------------------------------------------------------2--------------------------------------------
D|--------------------------------4--------------------------------------------------------------------------
A|-----------------------------------------------------------0-----------------------------------------------
E|--0--------------------------------------------------------------------------------------7-----------------

E|--------3--2-----------------3--2-----------
B|--5--------------3--------------------0-----
G|--------------------------------------------
D|-----2--------------------2-----------------
A|--------------------------------------------
E|--0--------------------0--------------------

E|---2p0--------0-----0--3--5--------0--------------3--------3--2--3--5-----7-----------5-----------
B|--------0-----3-----------------5-----------5-----------3-----3--------3--------0-----------7-----
G|-----------0--0--------------0-----------0-----------2--------2--------------0-----------7--------
D|--------------2-----------------------------------0-----------0-----------------------0-----------
A|--------------------------3-----------------------------------------------------------------------
E|---0----------------------------------------------------------------------3-----------------------

E|---2p0--------0-----0--3--5--------0--------------3--------3--2--3--5-----
B|--------0-----3-----------------5-----------5-----------3-----3--------3--
G|-----------0--0--------------0-----------0-----------2--------2-----------
D|--------------2-----------------------------------0-----------0-----------
A|--------------------------3-----------------------------------------------
E|---0----------------------------------------------------------------------

E|--0-----3--2-----------------3--2-----0--2--3--5--7--0--3-----2--------0-----------0-----------
B|-----------------3--------------------0--------------------------0-----------0-----------0-----
G|--------------------------------------------------------------------------0-----0-----0-----0--
D|-----2--------------------2--------------------------------------------------------------------
A|-----------------------------------------------3-----------2-----------------------------------
E|--0--------------------0-----------------------------------------------0-----------------------

E|--3--5--3--2--------7-----7-----------5-----------5--7--0--3-----2--------0-----------0-----------
B|-----------------0--------------0-----------7-----------------------0-----------0-----------0-----
G|-----------------------------0-----------7-----------------------------------0-----0-----0-----0--
D|--------------------------------------0-----------------------------------------------------------
A|--3-----------2-----------------------------------3-----------2-----------------------------------
E|--------------------------3-----------------------------------------------0-----------------------

E|--3--5--3--2--------------0--------------------------------------------------------
B|--------------------0-----------1-----5--5--5--5--5--5--5--5--5--5--5--5--5--5--5--
G|-----------------------------0-----0-----------------------------------------------
D|-----------------------------------------------------------------------------------
A|--3-----------2--------------------------------------------------------------------
E|--------------------------0--------------------------------------------------------

E|--0-----------------------------------------------------------------------------------
B|-----5--5--5--5--5--5--5--5--3--3--3--3--3--3--3--3--3--3--3--3--3--3--3--3--3--3--3--
G|--------------------------------------------------------------------------------------
D|--------------------------------------------------------------------------------------
A|--------------------------------------------------------------------------------------
E|--0-----------------------------------------------------------------------------------

E|-----------------------------------------------------------------------------------------------------
B|--------------3--3--5--3--5--3-----------------------------------------------------------------------
G|--2------------------------------7\4--2--0--------------------------0--------0------0h2--4---2---0---
D|---------0h2--------------------------------2--0-----0-----0--2-----------2-----2--------------------
A|--0-----------------------------------------------2-----2-----------0--------------------------------
E|---------------------------------0-------------------------------------------------------------------

E|--------------------------------------------------------------------------------------------------
B|--------------------------------------------------------------------------------------------------
G|--0--------------------------------0--------------------------------------------------------------
D|--------2--0-----------------0--2-----2--------0---0h2-----2--2-----0--0---0h2--------------------
A|-----------------------0--2-----------0-----------------------------------------------------------
E|--0--------------0--3--------------------------------------------0--------------------------------

E|--5--7--0--3-----2--------------------------3--5--3--2--------7-----7-----------5-----------
B|--------------------3-----------3--------------------------0--------------0-----------7-----
G|-----------------------------0-----4-----------------------------------0-----------7--------
D|--------------------------2-----------------------------------------------------0-----------
A|--3-----------2-----------------------------3-----------2-----------------------------------
E|--------------------------------------------------------------------3-----------------------

E|--5--7--0--3-----2--------------------------3--5--3--2--------------0--------0-----------0--
B|--------------------3-----------3--------------------------3--0-----------1--------1--3-----
G|-----------------------------0-----4-----------------------------------0--------0-----------
D|--------------------------2-----------------------------------------------------------------
A|--3-----------2-----------------------------3-----------2-----------3-----------------------
E|--------------------------------------------------------------------------------------------

E|--8-----------------0--2--3--7--10-12-14-15-
B|-----------------0--------------------------
G|--------------------------------------------
D|--------------2-----------------------------
A|--------------------------------------------
E|--------------------------------------------
tabs and chords, guitar tabs, music transcription, music technology, deep learning, music information retrieval, transcribe into tabs & chords, chordify, music renditions, songsterr, reverbnation, tabulature, bollywood chords, ultimate guitar, yousician, guitar lessons, acoustic guitar, electric guitar, guitar tuner, 911 tabs