Guitar Tabs for Naruto Ost - Sadness And Sorrow

(/) Slide Up  (\) Slide Down  (h) Hammer On  (p) Pull Off  (b) Bend (r) Release (v) Vibrato (x) Muted

Tabs & Chords

Check Track 2 for Chord Positions 

    Bm    E     D           Am          D     Bm          F#    Em          G     D           Em 
E|--------0-----------------------0--------------------------------------------------------------
B|--------------------------------------10----10----12-------------------------------------------
G|--11----------------------------------------------------11----------0-----12----11-------------
D|--------------12----12----10----------------------------------------------------------12-------
A|-----------------------------------------------------------------------------------------------
E|--------------------------------------------------------------12----------------------------12-

             G           Bm    B           E     Em    C                 Em    G     D        
E|--------------------------------0--------0-----------------0-----------0--------------------
B|-----------------------0-----------0-----------------10----------10-------------------------
G|-----0-----12----11----------11----------------12----------------------------12----11----12-
D|--------------------------------------------------------------------------------------------
A|--------------------------------------------------------------------------------------------
E|--------------------------------------------------------------------------------------------

                   G     Bm    D  E        Em          C                 G           D        
E|--------------------------------0--------0-----------------0--------------------------------
B|-----10----------12----10----------0-----------------10-------------------------------------
G|-----------------------------11----------------12----------------------------12----11----12-
D|-----------12----------------------------------------------------12----10-------------------
A|--------------------------------------------------------------------------------------------
E|--------------------------------------------------------------------------------------------

                   G                 D           Em          G                             C  
E|-----------------0-----------------------------------------------------0--------------------
B|-----10----------------------------------------------------------------------------------10-
G|-----------------------0-----12----11----------------0-----12----11----------11----12-------
D|-----------12----------------------------12-------------------------------------------------
A|--------------------------------------------------------------------------------------------
E|-----------------------------------------------12-------------------------------------------

                         Bm    G           Em                C                 Bm    G     A  
E|-----------0-----------------0-----------0--------------------------------------------------
B|-----12----------------------------------------0-----------10----------------12----12----10-
G|-----------------12----11----------11----------------12----------12----11-------------------
D|--------------------------------------------------------------------------------------------
A|--------------------------------------------------------------------------------------------
E|--------------------------------------------------------------------------------------------

       D     C                 F#m   Em    G     Em                C           Bm             
E|-----------------0-----------------0-----------0-----------------------------------------0--
B|-----10----12----------------------------------------0-----------10----------------0--------
G|-----------------------12----11----------11----------------12----------12----11-------------
D|--------------------------------------------------------------------------------------------
A|--------------------------------------------------------------------------------------------
E|--------------------------------------------------------------------------------------------

       Am             E                                                                       
E|-----0--0--0--0--0--0--0--0--0--0--0--0--0--0--0--0--0--0--0--0--0--0-----------------------
B|--------------------------------------------------------------------------------------------
G|--------------------------------------------------------------------------------------------
D|-----------------------------------------------------------------------12-12-12-12-12-12-12-
A|--------------------------------------------------------------------------------------------
E|--------------------------------------------------------------------------------------------

                      Am                                  Em                E              Am 
E|-----------------------0-----0-----10-10-12----10-12----10-10----------0-----------------0--
B|--------------------------------10-------------------------------10----------0-----0--------
G|--------------------------------------------------------------------12----------------------
D|--12-12-12-12-12-12-12----------------------------------------------------12----12----12----
A|--------------------------------------------------------------------------------------------
E|--------------------------------------------------------------------------------------------

          C              Am       Em                                     C              E        
E|--15----0-----0--------------------------0-----------------------0-----0--------------0-----0--
B|-----------------------12-10-------------------------------0-----------------------------------
G|-----------12----12-------------12-12----------------0--------------12-------------------------
D|--------------------------------------------12----------------12-------------12-12-------------
A|--------------------------------------------------------12-------------------------------------
E|--------------------------------------------------12-------------------------------------------

                   C                       D     Em          G           C                 Bm 
E|-----------------------------0-----------------0--------------------------------------------
B|-----------------10----12----------------------------------------0-----------10-------------
G|-----------------------------------12----11----------0-----------------12----------12----11-
D|-----12-12-12----------------------------------------------12-------------------------------
A|--------------------------------------------------------------------------------------------
E|--------------------------------------------------------------------------------------------

             G     D     C                       D           Em    G           Em             
E|-----------------------------------0-----------------0--------------------------------------
B|-----12----12----10----10----12----------------------------------------0-----------10-------
G|-----------------------------------------12----11----------0-----------------12----------12-
D|-----------------------------------------------------------------12-------------------------
A|--------------------------------------------------------------------------------------------
E|--------------------------------------------------------------------------------------------

       Bm             
E|-----------------0--
B|-----------0--------
G|-----11-------------
D|--------------------
A|--------------------
E|--------------------

Guitar Tabs for Naruto Ost - Sadness And Sorrow






    Bm    E     D           Am          D     Bm          F#    Em          G     D           Em 
E|--2-----0-----2-----------0-----------2-----2-----------2-----0-----------3-----2-----------0--
B|--3-----0-----3-----------1-----------3-----3-----------2-----0-----------3-----3-----------0--
G|--4-----1-----2-----------2-----------2-----4-----------3-----0-----------4-----2-----------0--
D|--4-----2-----0-----------2-----------0-----4-----------4-----2-----------5-----0-----------2--
A|--2-----2-----------------0-----------------2-----------4-----2-----------5-----------------2--
E|--------0-----------------------------------------------2-----0-----------3-----------------0--

             G           Bm    B           E     Em    C                 Em    G     D        
E|-----------3-----------2-----2-----------0-----0-----0-----------------0-----3-----2--------
B|-----------3-----------3-----4-----------0-----0-----1-----------------0-----3-----3--------
G|-----------4-----------4-----4-----------1-----0-----0-----------------0-----4-----2--------
D|-----------5-----------4-----4-----------2-----2-----2-----------------2-----5-----0--------
A|-----------5-----------2-----2-----------2-----2-----3-----------------2-----5--------------
E|-----------3-----------------------------0-----0-----------------------0-----3--------------

                   G     Bm    D  E        Em          C                 G           D        
E|-----------------3-----2-----2--0--------0-----------0-----------------3-----------2--------
B|-----------------3-----3-----3--0--------0-----------1-----------------3-----------3--------
G|-----------------4-----4-----2--1--------0-----------0-----------------4-----------2--------
D|-----------------5-----4-----0--2--------2-----------2-----------------5-----------0--------
A|-----------------5-----2--------2--------2-----------3-----------------5--------------------
E|-----------------3--------------0--------0-----------------------------3--------------------

                   G                 D           Em          G                             C  
E|-----------------3-----------------2-----------0-----------3-----------------------------0--
B|-----------------3-----------------3-----------0-----------3-----------------------------1--
G|-----------------4-----------------2-----------0-----------4-----------------------------0--
D|-----------------5-----------------0-----------2-----------5-----------------------------2--
A|-----------------5-----------------------------2-----------5-----------------------------3--
E|-----------------3-----------------------------0-----------3--------------------------------

                         Bm    G           Em                C                 Bm    G     A  
E|-----------------------2-----3-----------0-----------------0-----------------2-----3-----0--
B|-----------------------3-----3-----------0-----------------1-----------------3-----3-----2--
G|-----------------------4-----4-----------0-----------------0-----------------4-----4-----2--
D|-----------------------4-----5-----------2-----------------2-----------------4-----5-----2--
A|-----------------------2-----5-----------2-----------------3-----------------2-----5-----0--
E|-----------------------------3-----------0-----------------------------------------3--------

       D     C                 F#m   Em    G     Em                C           Bm             
E|-----2-----0-----------------2-----0-----3-----0-----------------0-----------2--------------
B|-----3-----1-----------------2-----0-----3-----0-----------------1-----------3--------------
G|-----2-----0-----------------2-----0-----4-----0-----------------0-----------4--------------
D|-----0-----2-----------------4-----2-----5-----2-----------------2-----------4--------------
A|-----------3-----------------4-----2-----5-----2-----------------3-----------2--------------
E|-----------------------------2-----0-----3-----0--------------------------------------------

       Am             E                                                                       
E|-----0--------------0-----------------------------------------------------------------------
B|-----1--------------0-----------------------------------------------------------------------
G|-----2--------------1-----------------------------------------------------------------------
D|-----2--------------2-----------------------------------------------------------------------
A|-----0--------------2-----------------------------------------------------------------------
E|--------------------0-----------------------------------------------------------------------

                      Am                                  Em                E              Am 
E|--------------------0-----------------------------------0-----------------0--------------0--
B|--------------------1-----------------------------------0-----------------0--------------1--
G|--------------------2-----------------------------------0-----------------1--------------2--
D|--------------------2-----------------------------------2-----------------2--------------2--
A|--------------------0-----------------------------------2-----------------2--------------0--
E|--------------------------------------------------------0-----------------0-----------------

          C              Am       Em                                     C              E        
E|--------0--------------0--------0--------------------------------------0--------------0--------
B|--------1--------------1--------0--------------------------------------1--------------0--------
G|--------0--------------2--------0--------------------------------------0--------------1--------
D|--------2--------------2--------2--------------------------------------2--------------2--------
A|--------3--------------0--------2--------------------------------------3--------------2--------
E|--------------------------------0-----------------------------------------------------0--------

                   C                       D     Em          G           C                 Bm 
E|-----------------0-----------------------2-----0-----------3-----------0-----------------2--
B|-----------------1-----------------------3-----0-----------3-----------1-----------------3--
G|-----------------0-----------------------2-----0-----------4-----------0-----------------4--
D|-----------------2-----------------------0-----2-----------5-----------2-----------------4--
A|-----------------3-----------------------------2-----------5-----------3-----------------2--
E|-----------------------------------------------0-----------3--------------------------------

             G     D     C                       D           Em    G           Em             
E|-----------3-----2-----0-----------------------2-----------0-----3-----------0--------------
B|-----------3-----3-----1-----------------------3-----------0-----3-----------0--------------
G|-----------4-----2-----0-----------------------2-----------0-----4-----------0--------------
D|-----------5-----0-----2-----------------------0-----------2-----5-----------2--------------
A|-----------5-----------3-----------------------------------2-----5-----------2--------------
E|-----------3-----------------------------------------------0-----3-----------0--------------

       Bm             
E|-----2--------------
B|-----3--------------
G|-----4--------------
D|-----4--------------
A|-----2--------------
E|--------------------

tabs and chords, guitar tabs, music transcription, music technology, deep learning, music information retrieval, transcribe into tabs & chords, chordify, music renditions, songsterr, reverbnation, tabulature, bollywood chords, ultimate guitar, yousician, guitar lessons, acoustic guitar, electric guitar, guitar tuner, 911 tabs