Guitar Tabs for Sad Song - We The King

(/) Slide Up  (\) Slide Down  (h) Hammer On  (p) Pull Off  (b) Bend (r) Release (v) Vibrato (x) Muted

Tabs for Song : SAD SONG - WE THE KING
TAB BY Xavier Mercier Inspired by James Godfhrey L Saguid

Capo: 1
Tuning: Standard

    INTRO
E|-----3p0---------3p0---------3--------------------     ---------	(2x, 2nd time start and stops at "*")
B|--1-----------------------------3--------3--------     1-p0-h1--
G|--------------2-----------0-----------------0-----     ---------
D|-----------3--------------------------0--------0--     ---------
A|-----------------------3--------------------------     ---------
E|--------*--------------------------3--------------  *  ---------

    VERSE
E|--------------------------------------------------------------------------------------------------------------
B|--1-----1-----1-----1---------0-----0-----0-----0---------1-----1-----1-----1---------------------------------
G|-----0-----0-----0-----0---------0-----0-----0-----0---------0-----0-----0-----0------2-----2-----2-----2-----
D|-----------------------------------------------------------------------------------------3-----3-----3-----3--
A|--3-------------------------------------------------------0---------------------------------------------------
E|-----C------------------------3--G---------------------------AM-----------------------1--F--------------------

    PRE-CHORUS
E|----------------------------------------------------------0-----0-----0-----0------
B|--------------1-----1---------------------3-----3---------1-----1-----1-----1------
G|--2-----2-----2-----2---------4-----4-----4-----4------------2-----2-----2-----2---
D|-----3-----3-----3-----3---------5-----5-----5-----5-------------------------------
A|----------------------------------------------------------0------------------------
E|--1--F------------------------3--G---------------------------AM--------------------

    CHORUS
E|-------------------0-----0---------------------------------
B|---1-----1---------1-----1---------3-----3-----3-----3-----
G|---2-----2------------0-----0------4-----4-----4-----4-----
D|------3-----3-------------------------5-----5-----5-----5--
A|-------------------3---------------------------------------
E|---1--F---------------C------------3--G--------------------

    CHORUS2
E|----------------------0-----0------------------------
B|------1-----1---------1-----1---------3-----3--------
G|------2-----2------------0-----0------4-----4--------
D|---------3-----3-------------------------5-----5-----
A|----------------------3------------------------------
E|------1--F---------------C------------3--G-----------

E|--0------------------------------------------------------
B|--1---------3---------1-----1-----1-----1---------3------
G|-----2------4---------2-----2-----2-----2---------4------
D|---------------5---------3-----3-----3-----3-------------
A|--0------------------------------------------------------
E|-----AM-----3--G------1--F------------------------3-G----

    BRIDGE
E|--0-----0-----0-----0-------------------------------------0-----0-----0-----0---------------------------------
B|--1-----1-----1-----1---------1-----1-----1-----1---------1-----1-----1-----1---------3-----3-----3-----3-----
G|-----0-----0-----0-----0------2-----2-----2-----2------------2-----2-----2-----2------4-----4-----4-----4-----
D|---------------------------------3-----3-----3-----3-------------------------------------5-----5-----5-----5--
A|--3-------------------------------------------------------0---------------------------------------------------
E|-----C------------------------1--F---------------------------AM-----------------------3--G--------------------

[INTRO]
[Verse] x2
[Pre-Chorus]
[Chorus] x2
[Chorus2]
[Intro]
[Verse] x2
[Pre-Chorus]
[Chorus] x2
[Chorus2]
[Bridge] x2
[Intro]
[Chorus] x2
[Chorus2]
[Chorus] x2
[Chorus2]
[Intro]
tabs and chords, guitar tabs, music transcription, music technology, deep learning, music information retrieval, transcribe into tabs & chords, chordify, music renditions, songsterr, reverbnation, tabulature, bollywood chords, ultimate guitar, yousician, guitar lessons, acoustic guitar, electric guitar, guitar tuner, 911 tabs