Guitar Tabs for Só Tu És Santo


Song lyrics hereE|----------------------------------------------------------------------------------------------
B|--------------------------------------------------------------------------------------------------------------
G|-----------------------------------------------------------6--6-----6--6--7--6--6-----------------------------
D|--7--7--7--6--------------------7--7--7--6-----------------------7-----------------7--9--11-9--7--------------
A|--------------9-----------------------------9--------9--7-----------------------------------------9--11-12----
E|-----------------9--9--10-9--------------------9--9-----------------------------------------------------------

E|--------------------------------------------------------------------------------------------------------------
B|--------------------------------------------------------------------------------------------------------------
G|-----------9--6--9--6--9--6--11-9--6--7--6--------------9--6--9--6--9--6--11-9--6--4--4--9--7--6-----6--------
D|--7--9--7--------------------------------------7--9--7--------------------------------------------9-----7--9--
A|--------------------------------------------------------------------------------------------------------------
E|--------------------------------------------------------------------------------------------------------------

E|--------------------------------------------------------------------------------------------------------------
B|--------------------------------------------------------------------------------------------------------------
G|--6-----7--6--9--7--6-----6--------6-----7--6--9--7--6-----6--------6-----7--6--9--7--6-----6--------6--------
D|-----7-----------------9-----7--9-----7-----------------9-----7--9-----7-----------------9-----7--9-----7--4--
A|--------------------------------------------------------------------------------------------------------------
E|--------------------------------------------------------------------------------------------------------------

E|--------
B|--------
G|--6--6--
D|--------
A|--------
E|-----






Paste any tab in acousterr's tab maker and we'll play it !!!
Now supports capo and sound effects for vibrato/pull-off/hammer/bends/mutes etc !!! Checkout help section
tabs and chords, guitar tabs, music transcription, music technology, deep learning, music information retrieval, transcribe into tabs & chords, chordify, music renditions, songsterr, reverbnation, tabulature, bollywood chords, ultimate guitar, yousician, guitar lessons, acoustic guitar, electric guitar, guitar tuner, 911 tabs