Guitar Tabs for Russian

(/) Slide Up  (\) Slide Down  (h) Hammer On  (p) Pull Off  (b) Bend (r) Release (v) Vibrato (x) Muted

Tabs for Song : 

Song lyrics here
E|--------------1--0--0--------------------------------0--5--3--3--3--3--3--1--1--0--0--5--5--5--5--5--5--5--5--3--1--0--------3--1--1--0--0--0--1--0--------1--0--0--0--1--0--------
B|-----------1-----------0--0--1--0--0--------1-----1--------------------------------------------------------------------------------------------------3--1--------------------------
G|--2-----2-----------------------------2--2-----0-----------------------------------------------------------------------2--2--------------------------------------------------1--2--
D|-----2-----------------------------------------------------------------------------------------------------------------------------------------------------------------------------
A|-----------------------------------------------------------------------------------------------------------------------------------------------------------------------------------
E|-----------------------------------------------------------------------------------------------------------------------------------------------------------------------------------

Song lyrics here
E|-----------------------------------0--1--0--0--------------------------------------------1--0-----1--0-----0-----------------------------------0--1--3--3--1--0--1--1--0-----1--0-----------------------------------5--5--3--3--2--3--5--3--3--1--0--1-----3--3--1--1--0--1--3--1--1--0--0-----1--1--0--------0--0-----------------------0--------1--0--0--5--
B|--------------------1--0--1--------------------3--2--3--------------------0-----0--------------3--------4-----------------------1--0--1-----------------------------------3--------1--0--3--1--0--0--------0--------------------------------------------------------------------------------------------3-----------3--1--0--3--1--0--------0--3--------------
G|-----2--1--2-----------------2--2--------------------------1--0--0-----------3-----1--1--------------------------2--1--2-----------------2--2--------------------------------------------------------2--1-----2--2--------------------------------------0-----------------------------------2--------------2--------------------------2-----------------------
D|--2-----------2--2--------------------------------------2-----------2--2--------------------------------------2-----------2--2--------------------------------------------------------------------------------------------------------------------------------------------------------------------------------------------------------------------------------
A|--------------------------------------------------------------------------------------------------------------------------------------------------------------------------------------------------------------------------------------------------------------------------------------------------------------------------------------------------------------
E|--------------------------------------------------------------------------------------------------------------------------------------------------------------------------------------------------------------------------------------------------------------------------------------------------------------------------------------------------------------

Paste any tab in acousterr's tab maker and we'll play it !!!
Now supports capo and sound effects for vibrato/pull-off/hammer/bends/mutes etc !!! Checkout help section
tabs and chords, guitar tabs, music transcription, music technology, deep learning, music information retrieval, transcribe into tabs & chords, chordify, music renditions, songsterr, reverbnation, tabulature, bollywood chords, ultimate guitar, yousician, guitar lessons, acoustic guitar, electric guitar, guitar tuner, 911 tabs