Guitar Tabs for Russian Anthem


Tabs for Song : 

--
E|--------------------------------------------------------------
B|--------13-------12-------------------------------------------
G|--12-------12-14-------------14-12----12----------------------
D|--------------------14----14-------15----------12-12-14-15-15-
A|-----------------------------------------15-15----------------
E|--------------------------------------------------------------

E|-----------------------12-------------------------------------------------------------------
B|--------12-13-15-------------15-13-15-12----13-12----12-------------------------13-12-------
G|--12-14-------------12-------------------12-------14----------14-12----12-------------14-12-
D|--------------------------------------------------------14-14-------15----------------------
A|--------------------------------------------------------------------------15-15-------------
E|--------------------------------------------------------------------------------------------



tabs and chords, guitar tabs, music transcription, music technology, deep learning, music information retrieval, transcribe into tabs & chords, chordify, music renditions, songsterr, reverbnation, tabulature, bollywood chords, ultimate guitar, yousician, guitar lessons, acoustic guitar, electric guitar, guitar tuner, 911 tabs