Guitar Tabs for Ruk Ja O Dil Diwane

Dekhe woh idhar hans ke bekhabar
E|---8/10--8h10p8--------------------10--8h10p8--------------------
B|--------------------11----11-11-------------------11----11-11----
G|-----------------------------------------------------------------
D|-----------------------------------------------------------------
A|-----------------------------------------------------------------
E|-----------------------------------------------------------------

Thaam ke dil hum khade hain
E|-----------------8-----8--8--8--10-11----10-11/13-10-
B|--11/13-9--9--11-------------------------------------
G|-----------------------------------------------------
D|-----------------------------------------------------
A|-----------------------------------------------------
E|-----------------------------------------------------

Ghumsum si nazar uski hai magar
E|--10-10h11p10-8-----10--8h10p8--------------------10--8h10p8--------------------
B|-----------------------------------11----11-11-------------------11----11-11----
G|--------------------------------------------------------------------------------
D|--------------------------------------------------------------------------------
A|--------------------------------------------------------------------------------
E|--------------------------------------------------------------------------------

Hothon pe shikve bade hain
E|-----------------8--8-----8--8--10-11----10-11/13-10----
B|--11/13-9--9--11----------------------------------------
G|--------------------------------------------------------
D|--------------------------------------------------------
A|--------------------------------------------------------
E|--------------------------------------------------------


Baat ban jaaye to 
E|--10-10h11p10-------13-13----13-11-11-13-13----
B|--------------13-13----------------------------
G|-----------------------------------------------
D|-----------------------------------------------
A|-----------------------------------------------
E|-----------------------------------------------

main baat chhedun zara
E|-----8--10-11-10-8--8-----8---8h10p8--6-----
B|--9-----------------------------------------
G|--------------------------------------------
D|--------------------------------------------
A|--------------------------------------------
E|--------------------------------------------

Ruk ja o dil deewane
E|--6-----6------8/10-8--6---6/8--4-----6---6h-8p6--4-----
B|--------------------------------------------------------
G|--------------------------------------------------------
D|--------------------------------------------------------
A|--------------------------------------------------------
E|--------------------------------------------------------

Poochhun to main zara
E|---4/6--6-----6---8/10-8--6--6-----
B|-----------------------------------
G|-----------------------------------
D|-----------------------------------
A|-----------------------------------
E|-----------------------------------

ladki hai ya hai jadoo
E|--4------4/6--6------8/10-8--6---6/8--4-----6---6h-8p6--4--
B|-----------------------------------------------------------
G|-----------------------------------------------------------
D|-----------------------------------------------------------
A|-----------------------------------------------------------
E|-----------------------------------------------------------

Kushbu hai ya nasha
E|---4/6--6-----6---8/11-8--6--6--
B|--------------------------------
G|--------------------------------
D|--------------------------------
A|--------------------------------
E|--------------------------------
tabs and chords, guitar tabs, music transcription, music technology, deep learning, music information retrieval, transcribe into tabs & chords, chordify, music renditions, songsterr, reverbnation, tabulature, bollywood chords, ultimate guitar, yousician, guitar lessons, acoustic guitar, electric guitar, guitar tuner, 911 tabs