Guitar Tabs for Riff1

(/) Slide Up  (\) Slide Down  (h) Hammer On  (p) Pull Off  (b) Bend (r) Release (v) Vibrato (x) Muted

Tabs for Song : 

Song lyrics here
E|--------------------------------------
B|--------------------------------------
G|--------------------------------------
D|-----------4--------------------------
A|-----6--7-----7--6-----4--6-----7--6--
E|--4-----------------4--------5--------

Song lyrics here
E|--
B|--
G|--
D|--
A|--
E|--

Paste any tab in acousterr's tab maker and we'll play it !!!
Now supports capo and sound effects for vibrato/pull-off/hammer/bends/mutes etc !!! Checkout help section

Bass Tabs for Riff1





G|---------------------------------------
D|-----------4--------------------------
A|-----6--7-----7--6-----4--6-----7--6--
E|--4-----------------4--------5--------




G|--
D|--
A|--
E|--

tabs and chords, guitar tabs, music transcription, music technology, deep learning, music information retrieval, transcribe into tabs & chords, chordify, music renditions, songsterr, reverbnation, tabulature, bollywood chords, ultimate guitar, yousician, guitar lessons, acoustic guitar, electric guitar, guitar tuner, 911 tabs