Guitar Tabs for Rewrite The Stars - The Greatest Showman Soundtrack

(/) Slide Up  (\) Slide Down  (h) Hammer On  (p) Pull Off  (b) Bend (r) Release (v) Vibrato (x) Muted

Tabs for Song : 

Song lyrics here
E|--------------------------------------------------------------------------------------------------------
B|-----------1--3-----------1--------------------------------1--3--------------------1--3--1--------------
G|--3--3--3--------------------3--3-----------------3--3--3-----------------3--3--3-----------3-----------
D|-----------------------------------1--1--------------------------------------------------------1--1-----
A|--------------------------------------------------------------------------------------------------------
E|--------------------------------------------------------------------------------------------------------

E|-----------------------------------------------------------------------------------------------------------
B|--1--1--1--1--------------------------1--3--------1-----------------------------------1--------------------
G|--------------3--2--3-----3--3--3--------------3--------3--------3--------3-----3--------2--2--2-----------
D|-----------------------------------------------------------1--------1--1-----------------------------------
A|-----------------------------------------------------------------------------------------------------------
E|-----------------------------------------------------------------------------------------------------------

E|--------------------------------------------
B|--------4--3--1-----------------1--3--1-----
G|--2--2-----------3-----3--3--3-----------3--
D|--------------------------------------------
A|--------------------------------------------
E|--------------------------------------------

[Chorus]
E|---------------5/6--5---------------------2/3--1------------------------5/6--5--------------------1-----------1-----------
B|--------1--------------6--4--------1-----------------1-----------1--------------6--4-----1--------------------------1-----
G|-----3-----3--------------------3-----3-----------3-----------3-----3-----------------3-----3--------3--3--------3--------
D|--------------------------------------------------------------------------------------------------------------------------
A|--------------------------------------------------------------------------------------------------------------------------
E|--------------------------------------------------------------------------------------------------------------------------

E|--------------------------------------------------3--1--1--------------
B|--------1--3--3-----------1--3--3-----------1--------------4--3--1-----
G|-----3--------------3--3-----------------3-----3-----------------------
D|-----------------------------------------------------------------------
A|-----------------------------------------------------------------------
E|-----------------------------------------------------------------------

E|------------------5/6--5-----------------------1--------------------------
B|-----------1--------------6--4-----------1--------4--3--1-----------------
G|-----3--3-----3-----------------------3-----3--------------------3--3-----
D|--------------------------------------------------------------------------
A|--------------------------------------------------------------------------
E|--------------------------------------------------------------------------


Now supports capo and sound effects for vibrato/pull-off/hammer/bends/mutes etc !!! Checkout help section
tabs and chords, guitar tabs, music contests, music covers, songsterr, reverbnation, renditions, tabulature, bollywood chords, ultimate guitar, yousician, guitar lessons, torrins, fender, gibson, acoustic guitar, electric guitar, youtube covers, gootar, guitar tuner, A-Z tabs, 911 tabs