Guitar Tabs for Scales Are Gay And So Is Yngwie

(/) Slide Up  (\) Slide Down  (h) Hammer On  (p) Pull Off  (b) Bend (r) Release (v) Vibrato (x) Muted

Tabs for Song : 

Song lyrics here
E|--0-----0--0-----0--0-----0--0-----0--0-----0-----0--0-----0--0-----0--0-----0--0--------------------------------
B|-----7--------8-----------------8--------7-----7--------8--------------------------9--------------------------8--
G|-----------------------6-----------------------------------------6--------7-----------9--------------10-9--7-----
D|-----------------------------------------------------------------------------------------11-8--9--8--------------
A|-----------------------------------------------------------------------------------------------------------------
E|-----------------------------------------------------------------------------------------------------------------

E|--0--------------------------------0--------------------
B|-----7--6--7--8-----------------------7--6--7--8--------
G|-----------------7--6-----------------------------7--6--
D|------------------------8/9-----------------------------
A|-----------------------------10/11----------------------
E|--------------------------------------------------------

E|--------------------------------------------------------------------------
B|--------------------------------------------------------------------------
G|---3/5---------5/6---------6/9---------6\0---5\0--------3-----------3-----
D|--------0--0--------0--0--------0--0---------------1\0-----0---4\0-----0--
A|--------------------------------------------------------------------------
E|--------------------------------------------------------------------------

E|-----------------------------------------------------------------------------------------------------
B|-----------------------------------------------------------------------------------------------------
G|-----------------------------------------------------------------------------------11----9--11-------
D|--------8--------------------------------------9--------8--------------------8--9-----8--------------
A|-----9-----9-----9--11-8--9-----------11-9--8--------9-----9-----9--11-8--9--------------------9--8--
E|--11----------7--------------11-9--7--------------11----------7--------------------------------------

Song lyrics here
E|--
B|--
G|--
D|--
A|--
E|--

Paste any tab in acousterr's tab maker and we'll play it !!!
Now supports capo and sound effects for vibrato/pull-off/hammer/bends/mutes etc !!! Checkout help section

Guitar Tabs for Scales Are Gay And So Is Yngwie





E|-----------------------------------------------------------------------------------------------------------------
B|-----------------------------------------------------------------------------------------11-8--9--8--------------
G|-----------------------6-----------------------------------------6--------7-----------9--------------10-9--7-----
D|-----7--------8-----------------8--------7-----7--------8--------------------------9--------------------------8--
A|--0-----0--0-----0--0-----0--0-----0--0-----0-----0--0-----0--0-----0--0-----0--0--------------------------------
E|-----------------------------------------------------------------------------------------------------------------

E|--------------------------------------------------------
B|-----------------------------10/11----------------------
G|------------------------8/9-----------------------------
D|-----------------7--6-----------------------------7--6--
A|-----7--6--7--8-----------------------7--6--7--8--------
E|--0--------------------------------0--------------------

E|--------------------------------------------------------------------------
B|--------------------------------------------------------------------------
G|--------0--0--------0--0--------0--0---------------1\0-----0---4\0-----0--
D|---3/5---------5/6---------6/9---------6\0---5\0--------3-----------3-----
A|--------------------------------------------------------------------------
E|--------------------------------------------------------------------------

E|--11----------7--------------11-9--7--------------11----------7--------------------------------------
B|-----9-----9-----9--11-8--9-----------11-9--8--------9-----9-----9--11-8--9--------------------9--8--
G|--------8--------------------------------------9--------8--------------------8--9-----8--------------
D|-----------------------------------------------------------------------------------11----9--11-------
A|-----------------------------------------------------------------------------------------------------
E|-----------------------------------------------------------------------------------------------------


E|--
B|--
G|--
D|--
A|--
E|--

tabs and chords, guitar tabs, music transcription, music technology, deep learning, music information retrieval, transcribe into tabs & chords, chordify, music renditions, songsterr, reverbnation, tabulature, bollywood chords, ultimate guitar, yousician, guitar lessons, acoustic guitar, electric guitar, guitar tuner, 911 tabs