Ukulele Tabs for Requiem - Dear Evan Hansen

(/) Slide Up  (\) Slide Down  (h) Hammer On  (p) Pull Off  (b) Bend (r) Release (v) Vibrato (x) Muted

Tabs for Song : 
BPM : 200

Song lyrics here 
A|--------------------0-----------------------------------------------------0--------------------------------0-----------
E|-----1--3-----3-----------3--1-----0-----------------------1--3-----3-----------3--1-----0--------------3--------------
C|--2-----------------------------------2--------------0--2-----------------------------------2--------------------------
G|-----------------------------------------------------------------------------------------------------------------------

A|--------------------0-----------------------------------------------------------------------------------
E|-----1--3-----3-----------3--1-----0-----------------1-----3-----------0--1--------0--------------------
C|--2-----------------------------------2--------------------------------------------------2--------------
G|--------------------------------------------------------------------------------------------------------

A|--------------------0-----------------------------------------------------0--------------------------------0-----------
E|-----1--3-----3-----------3--1-----0-----------------------1--3-----3-----------3--1-----0--------------3--------------
C|--2-----------------------------------2--------------0--2-----------------------------------2--------------------------
G|-----------------------------------------------------------------------------------------------------------------------

A|--------------------0--------------------------------------------------------0-----------------
E|-----1--3-----3-----------3--1-----0-----------------1--3-----0--------1--3-----3--------------
C|--2-----------------------------------2--------------------------------------------------------
G|-----------------------------------------------------------------------------------------------

A|--------------------------------------0-----------------------------------------------------------
E|--1--3-----3-----3-----1--3-----1-----------------------------------------------------1-----0-----
C|--------------------------------------------------0--2-----2-----2-----0--2-----0-----------------
G|--------------------------------------------------------------------------------------------------

A|-----------------------------------0-----------------------------
E|--1--3-----3-----3--1--------3--1-----------1--3-----------------
C|-----------------------------------------------------------------
G|-----------------------------------------------------------------

A|--3--------------3-----2--2--------0--0--------------------------------
E|-----------------------------------------------3--3--------1-----------
C|-----------------------------------------------------------------------
G|-----------------------------------------------------------------------

A|--3--------------3-----2--2--------0--0--------------------------5--------0-----0--3-----3-----2--0-----------------------------
E|--------------------------------------------3--------3-----1--------------------------------------------1-----3-----------------
C|--------------------------------------------------------------------------------------------------------------------------------
G|--------------------------------------------------------------------------------------------------------------------------------

A|--------------------0--------------------------------------
E|--------1--3--------------3-----1--------------------------
C|--2--------------------------------2-----------------0--2--
G|-----------------------------------------------------------




tabs and chords, guitar tabs, music transcription, music technology, deep learning, music information retrieval, transcribe into tabs & chords, chordify, music renditions, songsterr, reverbnation, tabulature, bollywood chords, ultimate guitar, yousician, guitar lessons, acoustic guitar, electric guitar, guitar tuner, 911 tabs