Guitar Tabs for Dear

(/) Slide Up  (\) Slide Down  (h) Hammer On  (p) Pull Off  (b) Bend (r) Release (v) Vibrato (x) Muted

Tabs for Song : 

Song lyrics here
E|--------------------------------------------
B|-----------6-----1-----1--8-----------------
G|-----------------------------13-7--8--8--13-
D|--3-----------------2-----------------------
A|-----3--3-----3-----------------------------
E|--------------------------------------------

Song lyrics here
E|-----------------
B|-----------------
G|--------18-------
D|-----15-------16-
A|--20-------19----
E|-----------------

Paste any tab in acousterr's tab maker and we'll play it !!!
Now supports capo and sound effects for vibrato/pull-off/hammer/bends/mutes etc !!! Checkout help section
tabs and chords, guitar tabs, music transcription, music technology, deep learning, music information retrieval, transcribe into tabs & chords, chordify, music renditions, songsterr, reverbnation, tabulature, bollywood chords, ultimate guitar, yousician, guitar lessons, acoustic guitar, electric guitar, guitar tuner, 911 tabs