Bass Tabs for R.e.m. - Losing My Religion

R.E.M. - Losing My Religion 

Intro
G|----------------------------------------------------------------------------------
D|-----2--------3-----3--3-----3--------5-----5---7\-----------2--3-----3--3-----3--
A|--5-----5--3--------------------5--5----------------2--3--5-----------------------
E|----------------------------------------------------------------------------------

G|--------------------------------------
D|--------5--5--7-----------------------
A|--5--5--------------------------------
E|-----------------5--5--3-----3--3--3--

Verse
G|--------------------------------------------------------------
D|-----------------7--------------------------------------------  2X
A|---------------------------------7\---------------------------   
E|--5-----5--5-----------3--5--7--------2-----0-----0--0-----3--

G|--------------------------------------------------
D|-----------------7--------------------------------
A|---------------------------------7\---------------
E|--5-----5--5-----------3--5--7--------2-----0-----

G|-----------------------7-----------------------------------------
D|-----------------------------------------5-----------------------  
A|-----7--6--5-----5--5-----0--5-----5--7--------------------------  
E|--7-----------------------------------------3--3-----3--3-----3--

Chorus
G|--------------------------------------------------------------
D|--------2--------3-----3--3-----3--------5--5--7-----------2--
A|--3--5-----5--3--------------------5--5-----------2--3--5-----
E|--------------------------------------------------------------

G|-----------------------------------------------------------
D|--3-----3--3-----3--------5--5--7--------------------------
A|--------------------5--5-----------------------------------
E|-----------------------------------5--5--3-----3--3-----3--

Bridge
G|--------------------------------------------------------------
D|-----------------------------------------------------2--------
A|-----------------------3-----5-----3-----5-----3--5-----5--3--
E|--5-----3-----1-----3-----------------------------------------

End

G|-----------------------------------------------------------
D|-----------------------------------------------------------
A|-----------------------------------------------------------
E|--5--------------3--5--------------3--5--------------3--5--



tabs and chords, guitar tabs, music transcription, music technology, deep learning, music information retrieval, transcribe into tabs & chords, chordify, music renditions, songsterr, reverbnation, tabulature, bollywood chords, ultimate guitar, yousician, guitar lessons, acoustic guitar, electric guitar, guitar tuner, 911 tabs