Bass Tabs for Rehab

(/) Slide Up  (\) Slide Down  (h) Hammer On  (p) Pull Off  (b) Bend (r) Release (v) Vibrato (x) Muted

Tabs for Song : 
BPM : 200


They tried to make me go to rehab but I said, 'No, no, no.      
G|--------------------------------------------------------------
D|--------------------------------------------------------------
A|-----3--------------3-----3--------3--------3-----3--3-----3--
E|--------------------------------------------------------------
  'Yes, I've been black but when I come back you'll know, know, know
G|-----------------------------------------------------------------------c
D|-----------------------------------------------------------------------
A|--3--------------3--------3-----------3-----------3-----3-----3-----3--
E|-----------------------------------------------------------------------

    I ain't got the time      and if my daddy thinks I'm fine
G|-----------------------------------------------------------------
D|-----------------------------------------------------------------
A|-----------------------------------------------------------------
E|--3--------3--------3--3--------------1-----1-----------1-----1--
  They tried to make me go to rehab but I said, 'No, no, no.  
G|-----------------------------------------------------------------
D|-----------------------------------------------------------------
A|--------3--------------3-----3--------3--------3-----3--3-----3--
E|-----------------------------------------------------------------
       I'd rather be at home with ray
G|-----------------------------------------------------
D|-----------------------------------------------------
A|--------------------------------0-----0-----0-----0--
E|--0-----0-----0-----------0--------------------------
          I ain't got seventy days
G|--------------------------------------
D|--------------------------------------
A|--------------------------------------
E|--1--1--1--1--1-----------4--4--4--4--
   'Cause there's nothing      There's nothing you can teach me


G|---------------------------------------------------------------------------
D|-----------------------------------------------------------------------------
A|-----------------------------------------------------------0-----0--0-----0--
E|--------------0-----0-----0-----------0--------------------------------------
     That I can't learn from Mr Hathaway
G|-----------------------------------------------------
D|-----------------------------------------------------
A|-----------------------------------------------------
E|--------1-----1-----1-----1-----4-----4-----4-----4--
       I didn't get a lot in class
G|-----------------------------------------------
D|-----------------------------------------------
A|-----------------------------------------------
E|--3-----3-----3-----3-----3-----3-----3-----3--
      But I know it don't come in a shot glass
G|-----------------------------------------------
D|-----------------------------------------------
A|-----------------------------------------------
E|--1-----1-----1-----1-----1-----1-----1-----1--


tabs and chords, guitar tabs, music transcription, music technology, deep learning, music information retrieval, transcribe into tabs & chords, chordify, music renditions, songsterr, reverbnation, tabulature, bollywood chords, ultimate guitar, yousician, guitar lessons, acoustic guitar, electric guitar, guitar tuner, 911 tabs