Guitar Tabs for Crimson Red

(/) Slide Up  (\) Slide Down  (h) Hammer On  (p) Pull Off  (b) Bend (r) Release (v) Vibrato (x) Muted

Tabs for Song : 
BPM : 180

Song lyrics here 
 
E|--------------------------------------------------------------------------------------------------
B|--------------------------------------------------------------------------------------------------
G|-----------2-----------------------2-----------------------2-----------------------2--------------
D|-----3-----------3-----------3-----------3-----------3-----------3-----------3-----------3--------
A|--1-----1-----------1-----3-----3-----------3-----5-----5-----------5--5--5-----5-----------5-----
E|--------------------------------------------------------------------------------------------------

E|--------------------------------------------------------------------------------------------------
B|--------------------------------------------------------------------------------------------------
G|-----------2-----------------------2-----------------------2-----------------------2--------------
D|-----3-----------3-----------3-----------3-----------3-----------3-----------3-----------3--------
A|--1-----1-----------1-----3-----3-----------3-----5-----5-----------5--5--5-----5-----------5-----
E|--------------------------------------------------------------------------------------------------

E|--------------------------------------------------------------------------------------------------
B|--------------------------------------------------------------------------------------------------
G|-----------2-----------------------2-----------------------2-----------------------2--------------
D|-----3-----------3-----------3-----------3-----------3-----------3-----------3-----------3--------
A|--1-----1-----------1-----3-----3-----------3-----5-----5-----------5--5--5-----5-----------5-----
E|--------------------------------------------------------------------------------------------------

E|--------------------------------------------------------------------------------------------------
B|--------------------------------------------------------------------------------------------------
G|-----------2-----------------------2-----------------------2-----------------------2--------------
D|-----3-----------3-----------3-----------3-----------3-----------3-----------3-----------3--------
A|--1-----1-----------1-----3-----3-----------3-----5-----5-----------5--5--5-----5-----------5-----
E|--------------------------------------------------------------------------------------------------

E|-----------------------------------------------------------------------------------------------------
B|-----------------------------------------------------------------------------------------------------
G|--------------2-----------------------2-----------------------2-----------------------2--------------
D|--------3-----------3-----------3-----------3-----------3-----------3-----------3-----------3--------
A|--1--------1-----------1-----3-----3-----------3-----5-----5-----------5--5--5-----5-----------5-----
E|-----------------------------------------------------------------------------------------------------

E|--------------------------------------------------------------------------------------------------
B|--------------------------------------------------------------------------------------------------
G|-----------2-----------------------2-----------------------2-----------------------2--------------
D|-----3-----------3-----------3-----------3-----------3-----------3-----------3-----------3--------
A|--1-----1-----------1-----3-----3-----------3-----5-----5-----------5--5--5-----5-----------5-----
E|--------------------------------------------------------------------------------------------------

E|--------------------------------------------------------------------------------------------------
B|--------------------------------------------------------------------------------------------------
G|-----------2-----------------------2-----------------------2-----------------------2--------------
D|-----3-----------3-----------3-----------3-----------3-----------3-----------3-----------3--------
A|--1-----1-----------1-----3-----3-----------3-----5-----5-----------5--5--5-----5-----------5-----
E|--------------------------------------------------------------------------------------------------

E|--------------------------------------------------------------------------------------------------
B|--------------------------------------------------------------------------------------------------
G|-----------2-----------------------2-----------------------2-----------------------2--------------
D|-----3-----------3-----------3-----------3-----------3-----------3-----------3-----------3--------
A|--1-----1-----------1-----3-----3-----------3-----5-----5-----------5--5--5-----5-----------5-----
E|--------------------------------------------------------------------------------------------------

E|--------------------------------------------------------------------------------------------------
B|--------------------------------------------------------------------------------------------------
G|-----------2-----------------------2-----------------------2-----------------------2--------------
D|-----3-----------3-----------3-----------3-----------3-----------3-----------3-----------3--------
A|--1-----1-----------1-----3-----3-----------3-----5-----5-----------5--5--5-----5-----------5-----
E|--------------------------------------------------------------------------------------------------

E|-----------------------------------------------------------------------------------------------------
B|-----------------------------------------------------------------------------------------------------
G|--------------2-----------------------2-----------------------2-----------------------2--------------
D|--------3-----------3-----------3-----------3-----------3-----------3-----------3-----------3--------
A|--1--------1-----------1-----3-----3-----------3-----5-----5-----------5--5--5-----5-----------5-----
E|-----------------------------------------------------------------------------------------------------

E|--------------------------------------------------------------------------------------------------
B|--------------------------------------------------------------------------------------------------
G|-----------2-----------------------2-----------------------2-----------------------2--------------
D|-----3-----------3-----------3-----------3-----------3-----------3-----------3-----------3--------
A|--1-----1-----------1-----3-----3-----------3-----5-----5-----------5--5--5-----5-----------5-----
E|--------------------------------------------------------------------------------------------------

E|--------------------------------------------------------------------------------------------------
B|--------------------------------------------------------------------------------------------------
G|-----------2-----------------------2-----------------------2-----------------------2--------------
D|-----3-----------3-----------3-----------3-----------3-----------3-----------3-----------3--------
A|--1-----1-----------1-----3-----3-----------3-----5-----5-----------5--5--5-----5-----------5-----
E|--------------------------------------------------------------------------------------------------

E|--------------------------------------------------------------------------------------------------
B|--------------------------------------------------------------------------------------------------
G|-----------2-----------------------2-----------------------2-----------------------2--------------
D|-----3-----------3-----------3-----------3-----------3-----------3-----------3-----------3--------
A|--1-----1-----------1-----3-----3-----------3-----5-----5-----------5--5--5-----5-----------5-----
E|--------------------------------------------------------------------------------------------------

E|--------------------------------------------------------------------------------------------------
B|--------------------------------------------------------------------------------------------------
G|-----------2-----------------------2-----------------------2-----------------------2--------------
D|-----3-----------3-----------3-----------3-----------3-----------3-----------3-----------3--------
A|--1-----1-----------1-----3-----3-----------3-----5-----5-----------5--5--5-----5-----------5-----
E|--------------------------------------------------------------------------------------------------

E|--------------------------------------------------------------------------------------------------
B|--------------------------------------------------------------------------------------------------
G|-----------2-----------------------2-----------------------2-----------------------2--------------
D|-----3-----------3-----------3-----------3-----------3-----------3-----------3-----------3--------
A|--1-----1-----------1-----3-----3-----------3-----5-----5-----------5--5--5-----5-----------5-----
E|--------------------------------------------------------------------------------------------------

Song lyrics here 

Use manual mode to free up cursor. Paste any tab in acousterr tab maker and we'll play it !!!
tabs and chords, guitar tabs, music transcription, music technology, deep learning, music information retrieval, transcribe into tabs & chords, chordify, music renditions, songsterr, reverbnation, tabulature, bollywood chords, ultimate guitar, yousician, guitar lessons, acoustic guitar, electric guitar, guitar tuner, 911 tabs