Guitar Tabs for Reckless Love [e]

(/) Slide Up  (\) Slide Down  (h) Hammer On  (p) Pull Off  (b) Bend (r) Release (v) Vibrato (x) Muted

Reckless Love [e]

Intro
E|--------------------------------------------------------------------------
B|--5--5--5--5--4--4--4--4--2--2--------7--7--7--7--5--5--4--4--2--2--------
G|--------------------------------4--1--------------------------------4--1--
D|--------------------------------------------------------------------------
A|--------------------------------------------------------------------------
E|--------------------------------------------------------------------------

Chorus
E|-----------------------------------------
B|--5-----------5-----------5--------------
G|-----4--2--1-----4--2--1-----4--2--1-----
D|--------------------------------------2--
A|-----------------------------------------
E|-----------------------------------------
Bridge, Not First Time

  x2
E|--------------------------------------
B|--------------------------------------
G|--------------------------------------
D|--------------------------------------
A|--------------------------------------
E|--12-12-12-12-11-11-11-11-9--9--7--7--

E|--------------------------------------
B|--------------------------------------
G|--------------------------------------
D|--------------------------------------
A|--------------------------12-12-11-11-
E|--12-12-12-12-14-14-14-14-------------

Paste any tab in acousterr's tab maker and we'll play it !!!
Now supports capo and sound effects for vibrato/pull-off/hammer/bends/mutes etc !!! Checkout help section
tabs and chords, guitar tabs, music contests, music covers, songsterr, reverbnation, renditions, tabulature, bollywood chords, ultimate guitar, yousician, guitar lessons, torrins, fender, gibson, acoustic guitar, electric guitar, youtube covers, gootar, guitar tuner, A-Z tabs, 911 tabs