Guitar Tabs for Reckless Love (a)

Reckless Love(A)
[Intro] 

    x1
e|----------------------------------------------------------------------------------------------------|
B|-----7--7--7--7--6--6--6--6--4--4--------------9--9--9--9--7--7--6--6--4--4-------------------------|
G|-----------------------------------6--3--------------------------------------6--3-------------------|
D|----------------------------------------------------------------------------------------------------|
A|----------------------------------------------------------------------------------------------------|
E|----------------------------------------------------------------------------------------------------|


[Verse]

Strumming only


[Chorus] 

    x4
e|-------------------------------------------------------------------------------------------|
B|--7--------------7--------------7----------------------------------------------------------|
G|-----6--4--3--------6--4--3--------6--4--3-------------------------------------------------|
D|--------------------------------------------4----------------------------------------------|
A|-------------------------------------------------------------------------------------------|
E|-------------------------------------------------------------------------------------------|

[Bridge]

No tabs first two lines, then come in when the lines repeat

    x2
e|----------------------------------------------------------------------------|
B|----------------------------------------------------------------------------|
G|----------------------------------------------------------------------------|
D|----------------------------------------------------------------------------|
A|----------------------------------------------------------------------------|
E|--14-14-14-14-13-13-13-13-11-11-9--9----------------------------------------|

    x4
e|----------------------------------------------------------------------------|
B|----------------------------------------------------------------------------|
G|----------------------------------------------------------------------------|
D|----------------------------------------------------------------------------|
A|--------------------------14-14-13-13---------------------------------------|
E|--14-14-14-14-16-16-16-16---------------------------------------------------|
tabs and chords, guitar tabs, music contests, music covers, songsterr, reverbnation, renditions, tabulature, bollywood chords, ultimate guitar, yousician, guitar lessons, torrins, fender, gibson, acoustic guitar, electric guitar, youtube covers, gootar, guitar tuner, A-Z tabs, 911 tabs