Bass Tabs for Raul Seixas - Aluga-se

BASS TAB
Raul Seixas - Aluga-se

Intro
G|--------------
D|--------------  4x
A|--------------
E|--2--3--4--5--

Verse
G|--------------
D|--------------  4x
A|--------------
E|--2--3--4--5--

Chorus
G|--------------------------------------------------------------------------
D|-----------------------------------5-----------------------------------5--
A|-----------2--5--2-----3--3---5h7-----7--5--------2--5-----3--3---5h7-----
E|--3-----3-----------------------------------3--3--------------------------

G|-----------------------------
D|--------------------2--5--2--  2x
A|--------0--3--0--3-----------
E|-----1-----------------------

G|--------------------------
D|-----0--3--0--------------  2x
A|--1--------------0--3--0--
E|--------------1-----------

G|--------------------------------------------------
D|--------------------------------------4--5--6--7--
A|---5h7---5h7---5h7---5h7---5h7---5h7--------------
E|--------------------------------------------------

tabs and chords, guitar tabs, music transcription, music technology, deep learning, music information retrieval, transcribe into tabs & chords, chordify, music renditions, songsterr, reverbnation, tabulature, bollywood chords, ultimate guitar, yousician, guitar lessons, acoustic guitar, electric guitar, guitar tuner, 911 tabs