Guitar Tabs for Radiohead - The Bends

Radiohead - The Bends

Intro

(D)   (C9)(G/B)(C9)  (G/B)  (C9) 4x

1st Verse

 (Em)
Where do we go from here

     (G)
The words are coming out all weird

               (C)           (C7)
Where are you now, when I need you

 (Em)
Alone on an aeroplane

 (G)                                (C)
Falling asleep against the window pane

               (C7)
My blood will thicken

Bridge

(A9) (C7)

E|--------0--3--2--0--------0--0--1--3--6-----6-----6-----6--7--
B|--2--3--------------3--0-----------------8-----8-----8--------
G|--------------------------------------------------------------
D|--------------------------------------------------------------
A|--------------------------------------------------------------
E|--------------------------------------------------------------


2nd Verse

   (Em)
I need to wash myself again

   (G)
to hide all the dirt and pain

               (C)                  (C7)
Cus I’ve been scared that there’s nothing underneath

 (Em)
Who are my real friends

 (G)
Have they all got the bends

             (C)       (C7)
Am I really sinking this low

Chorus

(D)   (C9)(G/B)(C9)  (G/B)  (C9)
Baby’s got the bends,    oh no

(D)                    (C9)(G/B)(C9)  (G/B)  (C9)
We don’t have any real friends, no no no

Pos-Chorus

      (A9)
Just lying in the bar with my drip feed on

                                                    (Em)
Talking to my girlfriend, waiting for something to happen

                   (A9)
I wish it was the sixties, I wish I could be happy

                                             (Em)
I wish, I wish, I wish that something would happen

3rd Verse

(Em)
Where do we go from here

     (G)                               (C)
The planet is a gunboat in a sea of fear

          (C7)
And where are you

      Em                      (G)
They brought in the CIA, the tanks and the whole marines

            (C)              (C7)
To blow me away, to blow me sky high

Chorus

(D)   (C9)(G/B)(C9)  (G/B)  (C9)
baby’s got the bends

(D)                   (C9)(G/B)(C9)  (G/B) (C9)
We don’t have any real friends

Pos-Chorus

      (A9)
Just lying in the bar with my drip feed on

                                                    (Em)
Talking to my girlfriend, waiting for something to happen

                   (A9)
I wish it was the sixties, I wish I could be happy

                                             (Em)
I wish, I wish, I wish that something would happen

Bridge

(G) (C)

         (G)
I wanna live, breathe

                              (C)
I wanna be part of the human race

         (G)
I wanna live, breathe

                              (C)
I wanna be part of the human race, race, race, race

Last Verse

(Em)
Where do we go from here

     (G)
The words are coming out all weird

               (C)           (C7)
Where are you now, when I need you
----------------------------------------------------------------------------------------------------
Chords

    D     C9   G/B    Em 
E|--2-----3-----3-----0--
B|--3-----3-----3-----0--
G|--2-----0-----0-----0--
D|--0-----2-----0-----2--
A|--------3-----2-----2--
E|--------------------0--

    G     C7    A9
E|--3-----0-----0--
B|--3-----1-----0--
G|--0-----3-----2--
D|--0-----2-----2--
A|--2-----3-----0--
E|--3--------------

tabs and chords, guitar tabs, music transcription, music technology, deep learning, music information retrieval, transcribe into tabs & chords, chordify, music renditions, songsterr, reverbnation, tabulature, bollywood chords, ultimate guitar, yousician, guitar lessons, acoustic guitar, electric guitar, guitar tuner, 911 tabs