Guitar Tabs for Radiohead - Exit Music (for A Film)

Radiohead - Exit Music (For A Film)

Intro

(Am) (Am) (A2) (A4) 2x (Am) (Am)

1st Verse

(Am)               (E)          
Wake from your sleep   

(C/G)              (D9/F#)
The drying of your tears

(Am)       (E)         
Today we escape

     (A4)  (A)
We escape

(Am)         (E)        
Pack and get dressed

(C/G)             (D9/F#) (D9/F)
Before your father hears us

(Am)       (E)      (A4)     (A)
Before all hell breaks loose

Chorus

(Gm)       (D7/F#)
Breathe, keep breathing

(A2)  (Am) (A2)(A4)  (Am) (E4)
Don't lose    your  nerve

(Gm)       (D7/F#)
Breathe, keep breathing

(A2)       (Am) (A2) (A4) (Am) (E4) (E)
I can't do this      alone

2nd Verse

(Am)      (E)    (C/G)          (D9/F#)
Sing us a song, a song to keep us warm

(Am)           (E)         (A4) (A)
There's sucha chill, sucha chill

Bridge

(Am)         (B)       (E)     (F)                  
And you can laugh a spineless laugh

(F)              (Bb)          (E4)      (E)
We hope your rules and wisdom choke you

(Am)           (E)     (C/G)       (D9/F#) (D9/F)
And now we are one, in everlasting peace

Outro

(Am)                (E)               (A4)   (A)
We hope that you choke, that you choke

(Am)                (E)               (A4)   (A)
We hope that you choke, that you choke

(Am)                (E)               (A4)  (A)
We hope that you choke, that you choke
----------------------------------------------------------------------------------------------------
Chords

    Am    A2    A4    E 
E|--0-----0-----0-----0--
B|--1-----0-----3-----0--
G|--2-----2-----2-----1--
D|--2-----2-----2-----2--
A|--0-----0-----0-----2--
E|--------------------0--

    C/G D9/F#  D9/F Gm
E|--0-----0-----0-----3--
B|--1-----3-----3-----3--
G|--0-----2-----2-----3--
D|--2-----0-----0-----5--
A|--3-----------------5--
E|--3-----2-----1-----3--

    B     F     Bb  D7/F#
E|--2-----1-----1-----2--
B|--4-----1-----3-----1--
G|--4-----2-----3-----2--
D|--4-----3-----3--------
A|--2-----3-----1--------
E|--------1-----------2--
tabs and chords, guitar tabs, music transcription, music technology, deep learning, music information retrieval, transcribe into tabs & chords, chordify, music renditions, songsterr, reverbnation, tabulature, bollywood chords, ultimate guitar, yousician, guitar lessons, acoustic guitar, electric guitar, guitar tuner, 911 tabs