Guitar Tabs for Queen Of Spanish Harlem

(/) Slide Up  (\) Slide Down  (h) Hammer On  (p) Pull Off  (b) Bend (r) Release (v) Vibrato (x) Muted

Tabs for Song : 
BPM : 126


Intro 
E|----------------------------------------------------------------------
B|--11-10---11--11-10---10-------333-3-6-3-----------------------------
G|--------12----------12--------------------5-3-5-/7--------------------
D|------------12--------------------------------------------------------
A|----------------------------------------------------------------------
D|----------------------------------------------------------------------
Acid on her tongue....
E|---------------------------------------------------------------------------------------------
B|---------------------------------------------------------------------------------------------
G|---------------------------------------------------------------------------------------------
D|---------------------------------3--x4--x5---------------------------------------------------
A|---------------------------------3--x4--x5---------------------------------------------------
D|--0-0-00-0-01-1-11-1-12-2-22-2-2-3--x4--x5---------------------------------------------------
She's thew Queen of Spanish Harlem....  Out for blood in Chinatown....
E|----------------------------------------------------------------------------------------------------
B|----------------------------------------------------------------------------------------------------
G|-------------------------------------------------------------------------------/8-7---------
D|--5--5---8-8--88--1--1---1-1-/-101010101010----5--5---8-8--88---1--1-----------------------------
A|--5--5- -8-8--88--1--1---1-1-/-101010101010----5--5---8-8--88---1--1----1--0---------------------
D|--5--5---8-8--88--1--1---1-1-/-101010101010----5--5---8-8--88---1--1---------3----------------
Cocaine on the D train.... Princess of the underground, she broke it and bought it 
E|------------------------------------------------------------------------------------------------
B|--------------------------------------------------------------------------------------------------------
G|-------------------------------------------------------3--2----------------------------------------------
D|--5--5---8-8--88--1--1---6--4---5--5---8-8--88--1--1---------3-------------------------------------------------------
A|--5--5---8-8--88--1--1---6--4---5--5---8-8--88--1--1------------------------------------------------------------------
D|--5--5---8-8--88--1--1---6--4---5--5---8-8--88--1--1-----------3--4/-0----------------------------------------------------


She's gonna fade away..
E|----------------------------------------------------------------------------------------------------------------------------------------
B|-----------------------------------------------13b(15)13-----13b(15)13------13--13b(15)13------13b(15)------13b(15)13-------------------
G|-----------8--7-5--------------/12-10-------------------15-12---------15-12--------------15-12--------15-12----------15-12--------------
D|-----5-7-8---------8-----5-7-8--------13-12---------------------------------------------------------------------------------------------
A|----------------------------------------------------------------------------------------------------------------------------------------
D|----------------------------------------------------------------------------------------------------------------------------------------
Sooner than she thinks...
E|---------------------------------------13-14-15--13-14-15--13-14-15--13----13---18-17-15-17-15--18-17-15-17b-(18)
B|-----15-13--13---------------------------------------------------------15---14-----------------------------------
G|----------15---15-14-15-14-12-14-12-----------------------------------------------------------------------------
D|-----------------------------------16----------------------------------------------------------------------------
A|-----------------------------------------------------------------------------------------------------------------
D|-----------------------------------------------------------------------------------------------------------------

Outro Solo
E|--666-6-6-5-3----333-3-3---------------6-6-6-5-6--8----13-13-13-12-----------------------------------------------------------
B|--------------3----------6-3--------------------------------------15-11-13-15--13-11-------------------------------------
G|-----------------------------3--5-3-2-------------------------------------------------------------------------
D|---------------------------------------------------------------------------------------------------------
A|---------------------------------------------------------------------------------------------------------
D|---------------------------------------------------------------------------------------------------------

E|-------------------------------------------------------------------------------------
B|-------------------------------------------------------------------------------------
G|--0---2-3-5-3-5-/6--5-------------------------0-3-5--3-5/6--0-3-5-3-5-/6--5-3---------------------------------
D|----------------------8--------------------------------------------------------5-------
A|------------------------6--5-6-8-6-5-6-5---------------------------------------5--------------
D|-----------------------------------------8-5-----------------------------------5--------
tabs and chords, guitar tabs, music transcription, music technology, deep learning, music information retrieval, transcribe into tabs & chords, chordify, music renditions, songsterr, reverbnation, tabulature, bollywood chords, ultimate guitar, yousician, guitar lessons, acoustic guitar, electric guitar, guitar tuner, 911 tabs