Guitar Tabs for Queen

E|--1--0--1--0-----------------------1--3--5--8--5-----1--------
B|-----------------------3--------1-----------------3-----3-----
G|--------------2-----2-----2-----------------------------------
D|--------------------------------------------------------------
A|--------------------------------------------------------------
E|--------------------------------------------------------------

E|--------------------6--5--6--5--3-----5--1--6--5--1-----6--4--1--6--4--1-----
B|--3--1--3--1-----------------------------------------------------------------
G|--------------3--------------------------------------------------------------
D|-----------------------------------------------------------------------------
A|-----------------------------------------------------------------------------
E|-----------------------------------------------------------------------------

E|--------1-----
B|--4--1--------
G|--------------
D|--------------
A|--------------
E|--------------


we will rock you:

E|--------------------------------------------------------------
B|--------------------------------------------------------------
G|--5--7--7--5--7--7--5--7--7--5--7--7-----12-10-10-7-----5-----
D|-----------------------------------------------------7--------
A|--------------------------------------------------------------
E|--------------------------------------------------------------

E|--------------------------------------------------------------
B|--------------------------------------------------------------
G|--5--7--7--5--7--------5--7--7-----7--7--5--7--5--------------
D|--------------------7-----------------------------7--5--------
A|--------------------------------------------------------8--5--
E|--------------------------------------------------------------

E|-----------------------
B|-----------------------
G|--12-10-10-9--7--7-----
D|-----------------------
A|-----------------------
E|-----------------------

tabs and chords, guitar tabs, music transcription, music technology, deep learning, music information retrieval, transcribe into tabs & chords, chordify, music renditions, songsterr, reverbnation, tabulature, bollywood chords, ultimate guitar, yousician, guitar lessons, acoustic guitar, electric guitar, guitar tuner, 911 tabs