Guitar Tabs for Queen - I Want To Break Free

Queen - I Want To Break Free

E|-----------------------------------------------
B|---9b------------------------------------------
G|--------11----9-----------------4-----2--------
D|-----------------11----9--------4-----2-----2--
A|--------------------------12/---2-----0-----2--
E|--------------------------12/---------------0--
 
Verse
 
                 (E) (E)            (E)
I want to break free, I want to break free

                 (E)                             (E)
I want to break free from your lies, you're so self satisfied

          (A)                           (E)
I don't need you. I've got to break free

 (B)    (A)                          (E)
God knows, God knows I want to break free

2nd Verse

                (E) (E)              (E)
I've fallen in love, I've fallen in love for the first time

      (E)                         (A)                    (E)
And this time I know it's for real, I've fallen in love, yeah

      (B)     (A)                     (E)
God knows, God knows I've fallen in love

Bridge

        (B)               (A)
It's strange but it's true

   (B)                               (A)
I can't get over the way you love me like you do

       (C#m)                     (F#4)           (F#)
But I have to be sure, when I walk out that door

(A)           (B)           (C#m)         (B)          (A)         (C#m)
Oh, how I want to be free, baby,  oh how I want to be free

 (B)          (A)              (E)
Oh, how I want to break free

Guitar Solo

(E) (A) (E) (B) (A) (E)

Last Verse

                    (E)
But life still goes on

                      (E)                                      (E)
I can't get used to, living without, living without, living without you

       (A) (A)                     (E)
By my side, I don't want to live alone, hey

      (B)     (A)                (E)
God knows, got to make it on my own

                 (B) (A)            (E)
So baby can't you see  I've got to break free

Ending

                (E)   (E)          (E)      (E)             
I've got to break free, I want to break free, yeah

(E)                 (E)                (E)
I want, I want, I want, I want to break free

----------------------------------------------------------------------------------------------------
Chords

    A     B    C#m 
E|--0-----2-----4--
B|--2-----4-----5--
G|--2-----4-----6--
D|--2-----4-----6--
A|--0-----2-----4--
E|-----------------

    E     F#   F#4
E|--0-----2-----2--
B|--0-----2-----2--
G|--1-----3-----4--
D|--2-----4-----4--
A|--2-----4-----4--
E|--0-----2-----2--
tabs and chords, guitar tabs, music transcription, music technology, deep learning, music information retrieval, transcribe into tabs & chords, chordify, music renditions, songsterr, reverbnation, tabulature, bollywood chords, ultimate guitar, yousician, guitar lessons, acoustic guitar, electric guitar, guitar tuner, 911 tabs