Bass Tabs for I Want To Break Free

(/) Slide Up  (\) Slide Down  (h) Hammer On  (p) Pull Off  (b) Bend (r) Release (v) Vibrato (x) Muted

Tabs for Song : 
BPM : 109
alles is in 8e noten.

Inzet pas bij 'I want to break free.' Niet van tevoren.

I want to break free~
(Speel de noten mee met de hi-hat van de drums)
G|--------------------------------------------------------------------------------------------------
D|--------------------------------------------------------------------------------------------------
A|--------------------------------------------------------------------------------------------------
E|--0--0--0--0--0--0--2--0--0--0--0--0--0--0--2--0--0--0--0--0--0--0--2--0--0--0--0--0--0--0--2--0--

G|--------------------------------------------------------------------------------------------------
D|--------------------------------------------------------------------------------------------------
A|--0--0--0--0--0--0--2--0--0--0--0--0--0--0--2--0--------------------------------------------------
E|--------------------------------------------------0--0--0--0--0--0--2--0--0--0--0--0--0--0--2--0--


God knows!
G|--------------------------------------------------------------------------------------------------
D|--------------------------------------------------------------------------------------------------
A|--2--2--2--2--2--2--4--2--0--0--0--0--0--0--2--0--------------------------------------------------
E|--------------------------------------------------0--0--0--0--0--0--2--0--0--0--0--0--0--0--2--0--

Herhaal alles hierboven nog 1x.
                        It's Strange, but it's true,                        I can't get over-
G|--------------------------------------------------------------------------------------------------
D|--------------------------------------------------------------------------------------------------
A|--------------------------2--2--2--2--2--2--2--2--0--0--0--0--0--0--0--0--2--2--2--2--2--2--2--2--
E|--0-----------------------------------------------------------------------------------------------
    Love me like you do~    Have to be sure~        Walk out that door.
G|--------------------------------------------------------------------------
D|--------------------------------------------------------------------------
A|--0--0--0--0--0--0--0--0--4--4--4--4--4--4--4--4--------------------------
E|--------------------------------------------------2--2--2--2--2--2--2--2--
    Oh, how I   Want to be  free, ba-by.      Oh,how I          want to be  free             Oh,
G|--------------------------------------------------------------------------------------------------
D|--------------------------------------------------------------------------------------------------
A|--0--0--0--0--2--2--2--2--4--4--4--4--4--4--2--2--0--0--0--0--2--2--2--2--4--4--4--4--4--4--2--2--
E|--------------------------------------------------------------------------------------------------
Laatste noot open laten klinken en wegvallen.
    How I       Want to break Free.
G|-----------------------------------------
D|-----------------------------------------
A|--0--0--0--0--2--2--2--2-----------------
E|--------------------------0--0--0--0--0--



tabs and chords, guitar tabs, music transcription, music technology, deep learning, music information retrieval, transcribe into tabs & chords, chordify, music renditions, songsterr, reverbnation, tabulature, bollywood chords, ultimate guitar, yousician, guitar lessons, acoustic guitar, electric guitar, guitar tuner, 911 tabs