Guitar Tabs for Queen - Another One Bites The Dust

Queen - Another One Bites The Dust

This song is particularly a bass song and progression. This is a version.

Intro
E|-----------------------------------
B|-----------------------------------
G|-----------------------------------   5x
D|-----------------------------------
A|-----------------------------------
E|--6--4--1--1--1--1--1--1--4--1--6--

Verse

            Steve walks warily down the street with his brim pulled way down low 
E|--------------------------------------------------------------------------------
B|--------------------------------------------------------------------------------
G|--------------------------------------------------------------------------------   
D|--------------------------------------------------------------------------------
A|--------------------------------------------------------------------------------
E|--6--4-----1--------1--------1-----------------------1--1--1-----4-----1-----6--

    Ain´t no sound but the sound of his feet, machine guns ready to go 
E|--------------------------------------------------------------------
B|--------------------------------------------------------------------
G|--------------------------------------------------------------------   
D|--------------------------------------------------------------------
A|--------------------------------------------------------------------
E|--1--------1--------1-----------------------1--1--1-----4--1-----6--

Pre-Chorus

Are you ready, hey, are you ready  for this, are you hanging on the edge of you seat
E|--------------------------------------------------------------------------------
B|--------------------------------------------------------------------------------
G|--------------------------------------------------------------------------------
D|--------------------------6-----------------------------------------------------
A|-----4--4--4--4-----6-----------------4--------4-----4--------4--6--------------
E|--------------------------------4--------------------------------------------4--

Out of the doorway the bullets rip, to the sound of the beat, yeah
E|--------------------------------------------------------------------
B|--------------------------------------------------------------------
G|--------------------------------------------------------------------
D|--------------------------6-----------------------------------------
A|--4-----4--4-----4--6--------------1-----1-----1--2--3--------------
E|-----------------------------4--------------------------------4-----

Chorus

                                             Another on bites the dust
E|--------------------------------------------------------------------
B|--------------------------------------------------------------------
G|--------------------------------------------------------------------
D|--------------------------------------------------------------------
A|--------------------------------------------------------------------
E|--1--------1--------1-----------------------1--1--1-----4--1-----6--

                                             Another on bites the dust
E|--------------------------------------------------------------------
B|--------------------------------------------------------------------
G|--------------------------------------------------------------------
D|--------------------------------------------------------------------
A|--------------------------------------------------------------------
E|--1--------1--------1-----------------------1--1--1-----4--1-----6--

And another one goes and another one gone, another one bites the dust
E|--------------------------------------------------------------------
B|--------------------------------------------------------------------
G|--------------------------------------------------------------------
D|--------------------------------------------------------------------
A|--------------------------------------------------------------------
E|--6--4-----1--------1--------1-----------1--1--1-----4-----1-----6--

Hey, I´m gonna get you too, another one bites the dust
E|-----------------------------------------------------
B|-----------------------------------------------------
G|-----------------------------------------------------
D|-----------------------------------------------------
A|-----------------------------------------------------
E|--3-----3--8--7--6--6--6-----3--3--3--3--6--3--8--4--


Pos-Chorus

E|-----------------------------------
B|-----------------------------------
G|-----------------------------------   2x
D|-----------------------------------
A|-----------------------------------
E|--6--4--1--1--1--1--1--1--4--1--6--

2nd Verse

In the 2nd and 3rd verse the guitar plays the chords in a very "funky" beat.

 How do you think I´m going to get alone, without you when you are gone
E|-----8-----------------------------------------------------------6--
B|-----9-----------------------------------------------------------6--
G|-----10----------------------------------------------------------6--   
D|-----10----------------------------------------------------------8--
A|-----8-----------------------------------------------------------8--
E|-----------------------------------------------------------------6--

  You took me for everything that I had, and kicket me out on my own
E|-----8--------------------------------------------------------6--
B|-----9--------------------------------------------------------6--
G|-----10-------------------------------------------------------6--
D|-----10-------------------------------------------------------8--
A|-----8--------------------------------------------------------8--
E|--------------------------------------------------------------6--

2nd Pre-Chorus

    Are you happy, are you sastisfied, how long can you stand the heat 
E|-----------------------------------------------------------------------------
B|-----------------------------------------------------------------------------
G|-----------------------------------------------------------------------------
D|--------------------------6--------------------------------------------------
A|-----4--4--4--4-----6-----------------4--------4-----4--------4--6-----------
E|--------------------------------4-----------------------------------------4--

   Out of the doorway the bullets rip, to the sound of the beat
E|--------------------------------------------------------------------
B|--------------------------------------------------------------------
G|--------------------------------------------------------------------
D|--------------------------6-----------------------------------------
A|--4-----4--4-----4--6--------------1-----1-----1--2--3--------------
E|-----------------------------4--------------------------------4-----

Repeat Chorus

Chorus Acapella

Repeat Pos-Chorus 

3rd Verse

There are plenty of ways, you can hurt a man and bring him to the ground
E|-----8-----------------------------------------------------------6--
B|-----9-----------------------------------------------------------6--
G|-----10----------------------------------------------------------6--   
D|-----10----------------------------------------------------------8--
A|-----8-----------------------------------------------------------8--
E|-----------------------------------------------------------------6--

You can beat him, you can cheat him bad and you can treat him bad and leave him when he´s down but
E|-----8-----------------------------------------------------------------------------------6--
B|-----9-----------------------------------------------------------------------------------6--
G|-----10----------------------------------------------------------------------------------6--
D|-----10----------------------------------------------------------------------------------8--
A|-----8-----------------------------------------------------------------------------------8--
E|-----------------------------------------------------------------------------------------6--

3rd Pre-Chorus
 
But I´m ready,yes I´m ready for you, I´m  standing on my own two feet
E|--------------------------------------------------------------------------------
B|--------------------------------------------------------------------------------
G|--------------------------------------------------------------------------------
D|--------------------------6-----------------------------------------------------
A|-----4--4--4--4-----6-----------------4--------4-----4--------4--6--------------
E|--------------------------------4--------------------------------------------4--

Out of the doorway the bullets rip, repeating to the sound of the beat 
E|--------------------------------------------------------------------
B|--------------------------------------------------------------------
G|--------------------------------------------------------------------
D|--------------------------6-----------------------------------------
A|--4-----4--4-----4--6--------------1-----1-----1--2--3--------------
E|-----------------------------4--------------------------------4-----

Repeat Chorus 

Ending 

E|-----8-----------------------------------------------------------6--
B|-----9-----------------------------------------------------------6--
G|-----10----------------------------------------------------------6--  2x   
D|-----10----------------------------------------------------------8--
A|-----8-----------------------------------------------------------8--
E|-----------------------------------------------------------------6--

E|--------------------------------------------------------------------------------
B|--------------------------------------------------------------------------------
G|--------------------------------------------------------------------------------
D|--------------------------6-----------------------------------------------------
A|-----4--4--4--4-----6-----------------4--------4-----4--------4--6--------------
E|--------------------------------4--------------------------------------------4--

E|-----------------------------------------------------------------
B|-----------------------------------------------------------------
G|-----------------------------------------------------------------
D|--------------------------6--------------------------------------
A|--4-----4--4-----4--6--------------1-----1-----1--2--3-----------
E|-----------------------------4--------------------------------4--
tabs and chords, guitar tabs, music transcription, music technology, deep learning, music information retrieval, transcribe into tabs & chords, chordify, music renditions, songsterr, reverbnation, tabulature, bollywood chords, ultimate guitar, yousician, guitar lessons, acoustic guitar, electric guitar, guitar tuner, 911 tabs