Guitar Tabs for Another One Bites The Dust


[Riff 1]

  1 + 2 + 3 + 4 +  1 + 2 + 3 + 4 + 
e|----------------|----------------|
B|----------------|----------------|
G|----------------|----------------|
D|----------------|----5--7--------|
A|7---7---7------7|7-7---7---------|
E|----------------|----------------| 

[Riff 3]
                                                   End Riff 3
  1 + 2 + 3 + 4 +  1 + 2 + 3 + 4 +  1 + 2 + 3 + 4 +  1 + 2 + 3 + 4 + 
e|----------------|----------------|----------------|----------------|
B|----------------|----------------|----------------|----------------|
G|----------------|----------------|----------------|----------------|
D|---------5------|----------------|---------5------|----------------|Riff 1 
A|3-3--3-45-------|3-3--3-45-------|3-3--3-45-------|----------------|three times
E|------------3---|------------3---|------------3---|5-5--5-67-------|

tabs and chords, guitar tabs, music transcription, music technology, deep learning, music information retrieval, transcribe into tabs & chords, chordify, music renditions, songsterr, reverbnation, tabulature, bollywood chords, ultimate guitar, yousician, guitar lessons, acoustic guitar, electric guitar, guitar tuner, 911 tabs