Guitar Tabs for Pyaar Ke Pal - Acoustic Cover

(/) Slide Up  (\) Slide Down  (h) Hammer On  (p) Pull Off  (b) Bend (r) Release (v) Vibrato (x) Muted

Tabs for Song : 

Song lyrics here
E|--------------------------------------------------------------------------------------------------
B|--------------------------------------------------------------------------------------------------
G|--1-----------------------------------1------2/4--4-----------------2-----2-----------------------
D|--2-----------------------------------------------2--------------------6--------------------------
A|--2-----------------------------------------------4-----------------------------------------------
E|--0-----------------------------------------------2-----------------------------------------------

E|--------------------------------------------------------------------------------------------------
B|--------------------------------------------------------------------------------------------------
G|--2-----------------------------------2------4/6--6-----------------4--2--4-----------------------
D|--2-----------------------------------------------4-----------------------------------------------
A|--0-----------------------------------------------2-----------------------------------------------
E|--------------------------------------------------------------------------------------------------

Song lyrics here
E|--------------------------------------------------------------------------------------------------
B|--------------------------------------------------------------------------------------------------
G|--1-----------------------------------1------2/4--4-----------------2-----2-----------------------
D|--2-----------------------------------------------2--------------------6--------------------------
A|--2-----------------------------------------------4-----------------------------------------------
E|--0-----------------------------------------------2-----------------------------------------------

E|--------------------------------------------------------------------------------------------------
B|--------------------------------------------------------------------------------------------------
G|--2-----------------------------------2------4/6--6-----------------4--2--4-----------------------
D|--2-----------------------------------------------4-----------------------------------------------
A|--0-----------------------------------------------2-----------------------------------------------
E|--------------------------------------------------------------------------------------------------

E|--------------------------------------------------------------------------------------------------
B|--------------5-----------------------4-----7-----------------------------------------------5-----
G|--------------4-----------------------4-----------------------4-----------------------3-----------
D|--------6-----------------------------------------------------4-----------------------3-----------
A|--4-----------------------------------------------------6-----------------------------------------
E|--------------------------------------------------4-----------------------------------------------

E|--------------------------------------------------------------------------------------------------
B|--------------------------------------2-----------------------------0-----------------------------
G|--------------2--------------------------4--2--4--------------1--------------------2-----------4--
D|--------------2-----------------------------------------2-----------------------2-----------4-----
A|--------4--------------------------------------------------------------------4-----------6--------
E|--2-----------------------------------------------0-----------------------2-----------4-----------

E|--------------------------4-----------------------------------------------------------------------
B|--------------5-----------------5-----4-----7-----------------------------4-----------------5-----
G|-----------4--------4-----------------4-----------------------4-----------------4-----3-----------
D|--------6--------------------------------------------------4--------4-----------------3-----------
A|--4-----------------------------------------------------6-----------------------------3-----------
E|--------------------------------------------------4-----------------------------------------------

E|--------------------------------------------------------------------------2-----------------------
B|--------------------------2-----------2-----------------------------4-----------4-----------------
G|--------------2-----------------2--------4--2--4--------------2-----------------------2-----------
D|-----------2--------2-----------------------------------4-----------------------------------4-----
A|--------4-----------------------------------------2-----------------------------------------------
E|--2-----------------------------------------------------------------------------------------------

E|--------------------------
B|--------------------------
G|--------------------------
D|--------------------------
A|--------------------------
E|--------------------------

E|--------------------------------------------------------------------------------------------------
B|--------------------------------------------------------------------------------------------------
G|-----------1--------------------------1--2--4-----4-----2--2--------------------------------------
D|--------4-----------------------------------------2-----------------6-----6-----4--2-----------2--
A|-----2--------------------------------------------0-----------------------2-----------------6-----
E|--0-----------------------------------------------------------------------------------------------

E|--------------------------0-----------------------------------------------------------------------
B|--------------------0-----------------------------------------------------------------------------
G|--------------1--------------------------------------1-----1--------------------------1--2--4-----
D|--------2-----------------------------------------4-----4-----------------------------------------
A|-----------------------------------------------2--------------------------------------------------
E|--0-----------------------------------------0-----------------------------------------------------

E|--------------------------------------------------------------------------------------------------
B|--------------------------------------------------------------------------------------------------
G|--4-----2--2--------------------------------------------------------------------------------------
D|--2-----------------6-----6-----4--2------------2/-4p2--------------------------------------------
A|--4-----------------------2-----------------6---------------2h-4p2--------------------------------
E|--2---------------------------------------------------------------------2h-4p2--------------------

E|--------------------------------0-----------------0-----------------------------------------------
B|--------------------------0-----------------------0-----------------------------------------------
G|--------------------1-----------------------------1-----------------------------------------------
D|--------------4-----------------------------------4-----------------------------------------------
A|--------2-----------------------------------------2-----------------------------------------------
E|--0-----------------------------------------------0-----------------------------------------------

-------

Paste any tab in acousterr's tab maker and we'll play it !!!
Now supports capo and sound effects for vibrato/pull-off/hammer/bends/mutes etc !!! Checkout help section
tabs and chords, guitar tabs, music transcription, music technology, deep learning, music information retrieval, transcribe into tabs & chords, chordify, music renditions, songsterr, reverbnation, tabulature, bollywood chords, ultimate guitar, yousician, guitar lessons, acoustic guitar, electric guitar, guitar tuner, 911 tabs