Guitar Tabs for Purani Jeans Aur Guitar

Purani jeans aur guitar
E|--------------3-----3-----5---3h-5p3--------
B|--5--5--6-----------------------------5-----
G|--------------------------------------------
D|--------------------------------------------
A|--------------------------------------------
E|--------------------------------------------


Mohalle ki vo chhat
Aur mere yaar
E|-----------5--5--5-----3--5---3h-5p3-----------
B|--5--5--6-----------------------------5--------
G|-----------------------------------------------
D|-----------------------------------------------
A|-----------------------------------------------
E|-----------------------------------------------



Vo cigaretee peena
Gali mein jaake
E|-----10/12-10-8-----8-----8--8--10--8h10p8--------------------
B|--8-----------------------------------------10----10-10-------
G|--------------------------------------------------------------
D|--------------------------------------------------------------
A|--------------------------------------------------------------
E|--------------------------------------------------------------


Wo karna daanton ko
Ghadi ghadi saaf
E|--------------------------------------------------
B|--10-8--10----10/12-12-12----10-12-10-12-12/13----
G|--------------------------------------------------
D|--------------------------------------------------
A|--------------------------------------------------
E|--------------------------------------------------



Bas yaadein
Yaadein
Yaadein reh jaati hain
E|--------8--8--------8--8-----8--10--8h10p8--------------
B|---6/8--8--8--------8--8--------------------8--10-10----
G|--------------------------------------------------------
D|--------------------------------------------------------
A|--------------------------------------------------------
E|--------------------------------------------------------


Kuchh chhoti
Chhoti
Baatein reh jaati hai
E|--------7--7--------7--7-----7--8---8h10p8--7--8--8--------8--8--------
B|---6/8--8--8--------8--8------------------------------6/8--8--8--------
G|-----------------------------------------------------------------------
D|-----------------------------------------------------------------------
A|-----------------------------------------------------------------------
E|-----------------------------------------------------------------------
tabs and chords, guitar tabs, music transcription, music technology, deep learning, music information retrieval, transcribe into tabs & chords, chordify, music renditions, songsterr, reverbnation, tabulature, bollywood chords, ultimate guitar, yousician, guitar lessons, acoustic guitar, electric guitar, guitar tuner, 911 tabs