Guitar Tabs for Psychic And The Astronaut

(/) Slide Up  (\) Slide Down  (h) Hammer On  (p) Pull Off  (b) Bend (r) Release (v) Vibrato (x) Muted

Tabs for Song : 

Song lyrics here
E|--7--5--2-----0--2--3--2--------------------------------------------------------------------------
B|-----------3--------------3-----3-----3-----3-----3-----3-----3-----3-----2-----2-----2-----2-----
G|-----------------------------2-----2-----2-----2-----2-----2-----2-----2-----2-----2-----2-----2--
D|--------------------------------------------------------------------------------------------------
A|--------------------------------------------------------------------------------------------------
E|--------------------------------------------------------------------------------------------------

E|-----------------------------3-----3-----3-----3--------------------------------------------------
B|--3-----3-----3-----3-----0-----0-----0-----0-----3-----3-----3-----3-----2-----2-----2-----2-----
G|-----2-----2-----2-----2-----------------------------2-----2-----2-----2-----2-----2-----2-----2--
D|--------------------------------------------------------------------------------------------------
A|--------------------------------------------------------------------------------------------------
E|--------------------------------------------------------------------------------------------------

E|-----------------------------3-----3-----3-----3--7--5--2-----0--2--3--2--------------------------
B|--3-----3-----3-----3-----0-----0-----0-----0--------------3--------------3-----3-----3-----3-----
G|-----2-----2-----2-----2-----------------------------------------------------2-----2-----2-----2--
D|--------------------------------------------------------------------------------------------------
A|--------------------------------------------------------------------------------------------------
E|--------------------------------------------------------------------------------------------------

E|--7--5--2-----0--2--3--2--------------------------
B|-----------3--------------3-----3-----3-----3-----
G|-----------------------------2-----2-----2-----2--
D|--------------------------------------------------
A|--------------------------------------------------
E|--------------------------------------------------

E|--10----10----10----------------5--2--7--5--3--2--10----10----10----------------5--2--7--5--3--2--
B|-----10----10----10-8--7-----3-----------------------10----10----10-8--7-----3--------------------
G|--------------------------2-----------------------------------------------2-----------------------
D|--------------------------------------------------------------------------------------------------
A|--------------------------------------------------------------------------------------------------
E|--------------------------------------------------------------------------------------------------

E|--------5--5--3--3--2--0--------------------------
B|--3--3--------------------3--3--3--3--3--3--3--3--
G|--------------------------------------------------
D|--------------------------------------------------
A|--------------------------------------------------
E|--------------------------------------------------

E|-----------------------------------------------------------------------------3-----3-----3-----3--
B|--3-----3-----3-----3-----2-----2-----2-----2-----3-----3-----3-----3-----0-----0-----0-----0-----
G|-----2-----2-----2-----2-----2-----2-----2-----2-----2-----2-----2-----2--------------------------
D|--------------------------------------------------------------------------------------------------
A|--------------------------------------------------------------------------------------------------
E|--------------------------------------------------------------------------------------------------

E|-----------------------------------------------------------------------------3-----3-----3-----3--
B|--3-----3-----3-----3-----2-----2-----2-----2-----3-----3-----3-----3-----0-----0-----0-----0-----
G|-----2-----2-----2-----2-----2-----2-----2-----2-----2-----2-----2-----2--------------------------
D|--------------------------------------------------------------------------------------------------
A|--------------------------------------------------------------------------------------------------
E|--------------------------------------------------------------------------------------------------

E|--7--5--2-----0--2--3--2--------------------------7--5--2-----0--2--3--2--------------------------
B|-----------3--------------3-----3-----3-----3--------------3--------------3-----3-----3-----3-----
G|-----------------------------2-----2-----2-----2-----------------------------2-----2-----2-----2--
D|--------------------------------------------------------------------------------------------------
A|--------------------------------------------------------------------------------------------------
E|--------------------------------------------------------------------------------------------------

E|--10----10----10----------------5--2--7--5--3--2--10----10----10----------------5--2--7--5--3--2--
B|-----10----10----10-8--7-----3-----------------------10----10----10-8--7-----3--------------------
G|--------------------------2-----------------------------------------------2-----------------------
D|--------------------------------------------------------------------------------------------------
A|--------------------------------------------------------------------------------------------------
E|--------------------------------------------------------------------------------------------------

E|--------5--5--3--3--2--0--------------------------------5--5--3--3--2--0--------------------------
B|--3--3--------------------3--3--3--3--3--3--3--3--3--3--------------------3--3--3--3--3--3--3--3--
G|--------------------------------------------------------------------------------------------------
D|--------------------------------------------------------------------------------------------------
A|--------------------------------------------------------------------------------------------------
E|--------------------------------------------------------------------------------------------------

E|--5--2--5--2-----2-----3--5--2--5--2--------------5--2--5--2--7--9--10-5--3--7--2--5--0--2-----5--
B|--------------3-----3-----------------3-----3-----------------------------------------------3-----
G|-----------------------------------------2-----2--------------------------------------------------
D|--------------------------------------------------------------------------------------------------
A|--------------------------------------------------------------------------------------------------
E|--------------------------------------------------------------------------------------------------

E|--10----10----10----------------5--2--7--5--3--2--------5--5--3--3--2--0--------------------------
B|-----10----10----10-8--7-----3--------------------3--3--------------------3--3--3--3--3--3--3--3--
G|--------------------------2-----------------------------------------------------------------------
D|--------------------------------------------------------------------------------------------------
A|--------------------------------------------------------------------------------------------------
E|--------------------------------------------------------------------------------------------------

Song lyrics here
E|--
B|--
G|--
D|--
A|--
E|--

Now supports capo and sound effects for vibrato/pull-off/hammer/bends/mutes etc !!! Checkout help section
B|--
G|--
D|--
A|--
E|--

Song lyrics here
E|--
B|--
G|--
D|--
A|--
E|--

Now supports capo and sound effects for vibrato/pull-off/hammer/bends/mutes etc !!! Checkout help section
tabs and chords, guitar tabs, music contests, music covers, songsterr, reverbnation, renditions, tabulature, bollywood chords, ultimate guitar, yousician, guitar lessons, torrins, fender, gibson, acoustic guitar, electric guitar, youtube covers, gootar, guitar tuner, A-Z tabs, 911 tabs