Guitar Tabs for Project V1

(/) Slide Up  (\) Slide Down  (h) Hammer On  (p) Pull Off  (b) Bend (r) Release (v) Vibrato

Tabs for Song : 

Song lyrics here
E|--------------------------------------------------
B|--------------------------------------------------
G|--------------------------------------------------
D|--------------------------------------------------
A|--------------------------0--0--0--2-----2--2-----
E|--0-----0-----3--3--3-----------------------------
Play at https://www.acousterr.com/tabmaker

Song lyrics here
E|--------------------------------------------------
B|--------------------------------------------------
G|--------------------------------------------------
D|--------------------------------------------------
A|--------------------------0--0--0-----------------
E|--0-----0-----3--3--3--------------2-----2--2-----
Play at https://www.acousterr.com/tabmaker
E|--------------------------------------------------
B|--------------------------------------------------
G|--------------------------------------------------
D|--------------------------------------------------
A|--------------------------0--0--0--2-----2--2-----
E|--0-----0-----3--3--3-----------------------------
Play at https://www.acousterr.com/tabmaker
E|--------------------------------------------------
B|--------------------------------------------------
G|--------------------------------------------------
D|--------------------------------------------------
A|--------------------------0--0--0-----------------
E|--0-----0-----3--3--3--------------2-----2--2-----
Play at https://www.acousterr.com/tabmaker
E|--------------------------------------------------------------------------------------------------
B|--------------------------------------------------------------------------------------------------
G|--------------------------------------------------------------------------------------------------
D|--------------------------------------------------------------------------------------------------
A|--------------------------------------------------0-----0-----0-----0-----2-----2-----2-----2-----
E|--0-----0-----0-----0-----3-----3-----3-----3-----------------------------------------------------
Play at https://www.acousterr.com/tabmaker
E|--------------------------------------------------------------------------------------------------
B|--------------------------------------------------------------------------------------------------
G|--------------------------------------------------------------------------------------------------
D|--------------------------------------------------------------------------------------------------
A|--------------------------------------------------0-----0-----0-----0-----------------------------
E|--0-----0-----0-----0-----3-----3-----3-----3-----------------------------2-----------------------
Play at https://www.acousterr.com/tabmaker
E|-----------------------------------------------------------------------------------------------------
B|-----------------------------------------------------------------------------------------------------
G|-----------------------------------------------------------------------------------------------------
D|-----------------------------------------------------------------------------------------------------
A|--------------------------------------------------------------------------0-----0--0-----0-----------
E|--0-----0-----0--0--0-----2-----2--2-----2-----2--3-----3-----3--3--3--------------------------3--0--
Play at https://www.acousterr.com/tabmaker




Add more lines by placing cursor below and adding notes
tabs and chords, guitar tabs, music transcription, music technology, deep learning, music information retrieval, transcribe into tabs & chords, chordify, music renditions, songsterr, reverbnation, tabulature, bollywood chords, ultimate guitar, yousician, guitar lessons, acoustic guitar, electric guitar, guitar tuner, 911 tabs