Guitar Tabs for Polyphia-bittersweet (intro Only)

(/) Slide Up  (\) Slide Down  (h) Hammer On  (p) Pull Off  (b) Bend (r) Release (v) Vibrato (x) Muted

Tabs for Song : 

Song lyrics here
E|--0------------------------------------5h7-----5------------------7h-8p7-----------------12v------------------
B|--10----8-----------------------------------8-----5-----------8-----------8-----------------12v---------------
G|--9-----------9-----5-----7--9--7--5-----------------------9------------------9p7---7/9--------12v-7\-5/9--9--
D|--7-----------------3-----5-----------------------------10----------------------------------------------------
A|--8-----------------3-----5-----------------------------------------------------------------------------------
D|--0-----------------3-----5--------------------------7--------------------------------------------------------

E|--0--------------------------------------------------------------0--------------------------0-----------------------0--
B|--10----8-----------------------------------------------------0--------------------------0--------------------------0--
G|--9-----------9-----5-----7--9--7--5---4h-5p4--------------7---------7/-9p5-----------7---------9/12p9--------------5--
D|--7-----------------3-----5--------------------5--------5--------------------7-----5--------------------10----------3--
A|--8-----------------3-----5-----------------------7--3--------------------------3-----------------------------------3--
D|--0-----------------3-----5--------------------------------------------------------------------------------3--------3---

Song lyrics here
E|--
B|--
G|--
D|--
A|--
D|--

Paste any tab in acousterr's tab maker and we'll play it !!!
Now supports capo and sound effects for vibrato/pull-off/hammer/bends/mutes etc !!! Checkout help section
tabs and chords, guitar tabs, music transcription, music technology, deep learning, music information retrieval, transcribe into tabs & chords, chordify, music renditions, songsterr, reverbnation, tabulature, bollywood chords, ultimate guitar, yousician, guitar lessons, acoustic guitar, electric guitar, guitar tuner, 911 tabs