Guitar Tabs for Only

(/) Slide Up  (\) Slide Down  (h) Hammer On  (p) Pull Off  (b) Bend (r) Release (v) Vibrato (x) Muted

Tabs for Song : 

Intro
E|--------------------------------------------------
B|--------------------------------------------------
G|--------7-----------7-----------4-----------4-----
D|-----5-----5-----5-----5-----5-----5-----5-----5--
A|--7-----------7-----------5-----------5-----------
E|--------------------------------------------------
Transition #1
E|-----------------------------------------------------------
B|-----------------------------------------------------------
G|--------7------7p5-----5-----------4------4p2-----2--------
D|-----5-----5--------5-----5-----5-----5--------4-----4-----
A|--7--------------------------5--------------------------5--
E|-----------------------------------------------------------

going into sad part

E|--------------------------------------------------------
B|--------------------------------------------------------
G|--------2-----------2-----------------4-----------4-----
D|-----4-----4-----4-----4-----------5-----5-----5-----5--
A|--5-----------5------------5/7--7-----------7-----------
E|--------------------------------------------------------
Transition #2
E|--------------------------------------------------------------------------------------------------------------
B|--------------------------------------------------------------------------------------------------------------
G|--------4-----------4-----------2-----------2-----------2-----------2-----------2-----------2-----------2-----
D|-----5-----5-----5-----5-----4-----4-----4-----4-----4-----4-----3-----3-----3-----3-----2-----2-----2-----2--
A|--7-----------7-----------5-----------5-----------5-----------5-----------5-----------0-----------0-----------
E|--------------------------------------------------------------------------------------------------------------

E|--------------------------------------------------------------------------------------------------------------------------------------------------------------------------------------
B|--------6--------6--------------------------------6-----------------------------------------------------------------------------------------------------------------------8--6--------
G|-----------7--------7--------6-----------------------7-----7-----------6--------------------------------------------------------------------------6-----------------7-----------7-----
D|-----7--------7-----------7-----------7--------7--------7-----7-----------7-----7-----------3-----------3--------------5-----5--------------7--------7-----------7-----7-----------7--
A|--5-----------------------------7--------7--5-----------------------7--------7-----7-----3-----3-----3-----3--------5-----5-----5--------7-----7--------7-----5-----------------------
E|-----------------------5-----------5-----------------------------5--------------------1-----------1-----------1--3-----------------3--5--------------------5--------------------------
Sad End Wife ded
E|-----------------------------------------------------------------------------------------------------------
B|-----------------------------------------------------------------------------------------------------------
G|-----------------------------------------------------------------------------------------------------------
D|--------12-------12-------12-------12-------12-------12-------12-------12-------12-------12----------12----
A|-----12-------12-------12-------12-------12-------12-------12-------12-------12-------12----12----12-------
E|--12-------12-------15-------15-------14-------14-------13-------13-------13-------13----------12-------5--
tabs and chords, guitar tabs, music contests, music covers, songsterr, reverbnation, renditions, tabulature, bollywood chords, ultimate guitar, yousician, guitar lessons, torrins, fender, gibson, acoustic guitar, electric guitar, youtube covers, gootar, guitar tuner, A-Z tabs, 911 tabs