Guitar Tabs for Poison - Talk Dirty To Me (guitar Solo)

Poison - Talk Dirty To Me (Guitar Solo)

1st Part
E|--------------------------------------------------------------
B|--5--5---3\1---0/5--5---3\1--0---0/12-12-10\8---7\5---3\1--0--
G|--5--5---4\2---0/5--5---4\2--0---0/12-12-11\9---7\5---4\2--0--
D|--------------------------------------------------------------
A|--------------------------------------------------------------
E|--------------------------------------------------------------

2nd Part
E|-----------------------------------------------------------
B|--5--5---3\1--0---0/5--5---3\1--0--7--7--8---8/10-10-12-12-
G|--5--5---4\2--0---0/5--5---4\2--0--7--7--9---9/11-11-12-12-
D|-----------------------------------------------------------
A|-----------------------------------------------------------
E|-----------------------------------------------------------

3rd Part
E|--------8-----------------------8-----------------
B|--------------------------------------------------
G|--10b12----12r10-8--10-8--10b12----12r10-8--10-8--
D|--------------------------------------------------
A|--------------------------------------------------
E|--------------------------------------------------

4th Part
E|---3p-2p0-----------------------------------------------------------------
B|------------3p-2p0--------------------------------------------------------
G|---------------------4p-2p0------------4p-2p0-----------------------------
D|------------------------------4p-2p0------------4p-2p0--------------------
A|---------------------------------------------------------3p-2p0-----------
E|------------------------------------------------------------------3p-2p0--

5th Part
E|-----------------------------------------------------15-15-15-------------------------------------
B|--------------------------------------------------------------15-15-15----------------------------
G|--2--2--4--4--5--5--6--7--14b16r14-12-14b16r14-12-12-------------------12-12-12-------------------
D|--------------------------------------------------------------------------------12-12-12----------
A|-----------------------------------------------------------------------------------------10-10-10-
E|--------------------------------------------------------------------------------------------------
tabs and chords, guitar tabs, music transcription, music technology, deep learning, music information retrieval, transcribe into tabs & chords, chordify, music renditions, songsterr, reverbnation, tabulature, bollywood chords, ultimate guitar, yousician, guitar lessons, acoustic guitar, electric guitar, guitar tuner, 911 tabs