Guitar Tabs for Poison - Talk Dirty To Me

Poison - Talk Dirty To Me

Tuning -> Half Step Down (Eb - Ab - Db - Gb - Bb - Eb)

(C5) (D5) (F#5)/(G5) (F#5)/(G5) (F#5)/(G5) 2x

1st Verse

          (G5)
You know I never I never seen you look so good

                           (D5)         (D5) (E5) (F#5) (E5) (E5) \ (D5)
You never act the way you should, but I like it

           (C5)                                  (G5)
And I know you like it too, the way that I want you

             (D5)
I gotta have you. oh yes, I do
E|-----------------------10----------
B|------------------6h7------6h7-----
G|--------------------------------7--
D|-----------------------------------
A|-----------------------------------
E|-----------------------------------

2nd Verse

          (G5)
I never, I never ever stay out late

                           (D5)            (D5) (E5) (F#5) (E5) (E5) \ (D5)
You know that I can hardly wait, just to see you

      (C5)                                 (G5)
And I know you cannot wait, wait to see me too

             (D5)
I gotta touch you, cause baby we'll be

Chorus

 (C5)      (D5)
At the drive-in

(F#5)/(G5) (F#5)/(G5) (F#5)/(G5)
In the old man's Ford

 (C5)        (D5) 
Behind the bushes

(F#5)/(G5) (F#5)/(G5) (F#5)/(G5)
Till I'm screamin' for more

(C5)     (D5)
Down the basement

(E5)  (C5)  (A5)
Lock the cellar door and baby

(D5)  
    Talk dirty to me

(F#5)/(G5) (F#5)/(G5)

3rd Verse

           (G5)
You know I call you, I call you on the telephone

                           (D5)            (D5) (E5) (F#5) (E5) (E5) \ (D5)
I'm only hoping that you're home, so I can hear you

         (C5)                                    (G5)
When you say those words to me, and whisper so softly

             (D5)
I gotta hear you, cause baby we'll be


Chorus

 (C5)      (D5)
At the drive-in

(F#5)/(G5) (F#5)/(G5) (F#5)/(G5)
In the old man's Ford

 (C5)        (D5) 
Behind the bushes

(F#5)/(G5) (F#5)/(G5) (F#5)/(G5)
Till I'm screamin' for more

(C5)     (D5)
Down the basement

(E5)  (C5)  (A5)
Lock the cellar door and baby

(D5)  
    Talk dirty to me

(F#5)/(G5) (F#5)/(G5) (F#5)/(G5)

(D5)
C.C. pick up that guitar and talk to me

Guitar Solo

Chorus

 (C5)      (D5)
At the drive-in

(F#5)/(G5) (F#5)/(G5) (F#5)/(G5)
In the old man's Ford

 (C5)        (D5) 
Behind the bushes

(F#5)/(G5) (F#5)/(G5) (F#5)/(G5)
Till I'm screamin' for more

(C5)     (D5)
Down the basement

(E5)  (C5)  (A5)
Lock the cellar door and baby

(D5)  
    Talk dirty to me

Ending
(G5) (G5) (G5) (F#5) (E5) (C5) (D5) 2x
E|--17b19-19-17-15-14h15p14----------
B|--------------------------15-15/17-
G|-----------------------------------
D|-----------------------------------
A|-----------------------------------
E|-----------------------------------

(F#5)/(G5) (F#5)/(G5) (F#5)/(G5) 2x (G5)
                                                                   Uh yeah...
E|--------15-------------15-------------15-------18-18b20-18-------
B|-----------18p15----------18p15----------18p15-----------------8/
G|--17b19----------17b19----------17b19-----------------------0\-7/
D|---------------------------------------------------------------5/
A|-----------------------------------------------------------------
E|-----------------------------------------------------------------

tabs and chords, guitar tabs, music transcription, music technology, deep learning, music information retrieval, transcribe into tabs & chords, chordify, music renditions, songsterr, reverbnation, tabulature, bollywood chords, ultimate guitar, yousician, guitar lessons, acoustic guitar, electric guitar, guitar tuner, 911 tabs