Bass Tabs for Play The Song Elvis

(/) Slide Up  (\) Slide Down  (h) Hammer On  (p) Pull Off  (b) Bend (r) Release (v) Vibrato (x) Muted

Tabs for Song : 
BPM : 250
Song lyrics here 
G|-----------------------------------------------------------------------------------------------------------------------]-----------------------------------
D|--------------9-----10---------------------9------10---------------------9------10---------------------9------10------------------9------10----------------
A|-----------------------------------------------------------------------------------------------------------------------------------------------------------
E|-----------------------------------------------------------------------------------------------------------------------------------------------------------

G|--------------------------------------------------------------------------------------------------
D|--------7--7--10-10-12-10-------7--7--10-10-12-10-------------------------------------------------
A|--8--8--------------------8--8--------------------------7--7--10-10-12-10-------7--7--10-10-12-10-
E|--------------------------------------------------8--8--------------------8--8--------------------

G|--------------------------------------------------------------------------------------------------
D|--------9--9--12-12-14-12-------7--7--10-10-12-10-------------------------------------------------
A|--10-10-------------------8--8--------------------------7--7--10-10-12-10-------7--7--10-10-12-10-
E|--------------------------------------------------8--8--------------------8--8--------------------



tabs and chords, guitar tabs, music transcription, music technology, deep learning, music information retrieval, transcribe into tabs & chords, chordify, music renditions, songsterr, reverbnation, tabulature, bollywood chords, ultimate guitar, yousician, guitar lessons, acoustic guitar, electric guitar, guitar tuner, 911 tabs