Guitar Tabs for Piya Ore Piya - Atif Aslam Tabs

(/) Slide Up  (\) Slide Down  (h) Hammer On  (p) Pull Off  (b) Bend (r) Release (v) Vibrato (x) Muted

Tabs for Song : Piya Ore Piya

Intro
E|--------------------------------------
B|-----------------10----------------10-
G|--12-11-9--11-12----12-11-9--11-12----
D|--------------------------------------
A|--------------------------------------
E|--------------------------------------

Intro
E|--------10-10-10-10-------------------------
B|--------------------10-12-10-12-10----------
G|-----------------------------------12-11-9--
D|--12-12-------------------------------------
A|--------------------------------------------
E|--------------------------------------------

Intro
E|--------------------
B|-----------------10-
G|--12-11-9--11-12----
D|--------------------
A|--------------------
E|--------------------

Chuliya Tune Lab Se Ankho Ko
E|--10-9-----------------------------------
B|--------12-10-10-------------------------
G|-----------------12-11-9--11-12-11-9-----
D|--------------------------------------12-
A|-----------------------------------------
E|-----------------------------------------

Mannate Puri Tumse Hi
E|--10-9--------------------
B|--------12-10-10-------10-
G|-----------------11-12----
D|--------------------------
A|--------------------------
E|--------------------------

Tu Mile Jahan Mera Jahan Hai Waha
E|--10-9-----------------------------------------
B|--------12-10-10-------------------------------
G|-----------------12-11-9--11-9--11-12-11-9-----
D|--------------------------------------------12-
A|-----------------------------------------------
E|-----------------------------------------------

Rounke Sari Tumse Hi
E|--10-9--------------------
B|--------12-10-10-------10-
G|-----------------11-12----
D|--------------------------
A|--------------------------
E|--------------------------

Piya O Re Piya...
E|-----12/14-12-14-12-10-9-----10-9-----------
B|--10----------------------12-------12-10----
G|-----------------------------------------12-
D|--------------------------------------------
A|--------------------------------------------
E|--------------------------------------------

Piya Re Piya Re Piya..
E|--10-10-10-10-9--9--12-9--10-
B|-----------------------------
G|-----------------------------
D|-----------------------------
A|-----------------------------
E|-----------------------------
tabs and chords, guitar tabs, music transcription, music technology, deep learning, music information retrieval, transcribe into tabs & chords, chordify, music renditions, songsterr, reverbnation, tabulature, bollywood chords, ultimate guitar, yousician, guitar lessons, acoustic guitar, electric guitar, guitar tuner, 911 tabs