Guitar Tabs for Pink Floyd - Wish You Were Here

Pink Floyd - Wish You Were Here

Intro
E|--------------3-----3-----3-----------------3-----3-----3--
B|--------------3-----3-----3-----------------3-----3-----3--
G|--------------0-----0-----0--------0--------0-----0-----0--  2x
D|-----------0--2-----2-----2---0h2------0h2--0-----0-----0--
A|------0h2-----2-----2-----2-----------------2-----2-----2--
E|--3-----------------------------------------3-----3-----3--

E|--------------3-----3-----3-----------------3--3--3--
B|--------------3-----3-----3-----------------3--3--3--
G|--------------0-----0-----0-----------------0--0--0--  2x
D|-----------0--2-----2-----2---0h2--0--------2--2--2--
A|------0h2-----2-----2-----2------------0h2--0--0--0--
E|--3--------------------------------------------------

E|--3--3--3-----------------
B|--3--3--3-----------------
G|--0--0--0-----------------
D|--0--0--0--------------0--
A|--2--2--2--2------0h2-----
E|--3--3--3--3--3-----------

1st Solo
E|-----------------------------------------------
B|-----------3--5-----3--------------------------
G|---2h-3/4--------4------4p-2p0-----------------
D|--------------------------------0--------0--0--
A|------------------------------------0h2--------
E|-----------------------------------------------

E|---3/5--3-----------------------------
B|---3/5--3--3--5--3--0---3/5---3p0--0--
G|-----------2--4--2--0---2/4---2p0--0--
D|--------------------------------------
A|--------------------------------------
E|--------------------------------------

E|--------------------------------------------------------------
B|-----------3-----5---5b7--5--3-----3-----------3--5-----------
G|---2h-3/4-----4-----------------4-----2---4b6---------4b6--2--
D|--------------------------------------------------------------
A|--------------------------------------------------------------
E|--------------------------------------------------------------

E|--------------------------------------------------------
B|-----------3-----5---5b7--5--3-----3--------------------
G|---2h-3/4-----4-----------------4-----2------4b-6r4--2--
D|--------------------------------------------------------
A|--------------------------------------------------------
E|--------------------------------------------------------

Verse

(C)                      (D)   (D/F#)
So, so you think you can tell

             (Am/E)                                     
Heaven from hell 

                (G)
Blue skies from pain 

                    (D)     (D/F#)
Can you tell a green field

                  (C)                                             
From a cold steel rail

                (Am)
A smile from a veil

                      (G)
Do you think you can tell

                    (C)                                          
Did they get you to trade 

(D)    (D/F#) 
Your heroes for ghosts 

(Am/E)
Hot ashes for trees

                (G)                                    
Hot air for a cool breeze

                      (D)   (D/F#)  
Cold comfort for change? 

          (C)
Did you exchange

                      (Am)                          
A walk on part in the war

                      (G)
For a lead role in a cage?

Chorus

(C)                               
How I wish

                      (D) (D/F#)
How I wish you were here

           (Am/E)                                                
We're just two lost souls swimming in a fish bowl

 (G)
Year after year
    
(D)                       (D/F#)                                            
Running over the same old ground  

(C)
What have we found  

             (Am)
The same old fears

               (G)
Wish you were here
tabs and chords, guitar tabs, music transcription, music technology, deep learning, music information retrieval, transcribe into tabs & chords, chordify, music renditions, songsterr, reverbnation, tabulature, bollywood chords, ultimate guitar, yousician, guitar lessons, acoustic guitar, electric guitar, guitar tuner, 911 tabs