Bass Tabs for Pink Floyd - Wish You Were Here

Pink Floyd - Wish You Were Here

First Half-Verse
G|-----------------------------------------------------
D|-----------------------------------------------------
A|--------3-----5-----------------5-----3--------------
E|--3-----------------5-----3-----------------5-----3--

Riff
G|--------------------------------
D|-----------0--2-----2--5--2-----  2x
A|------0h2-----------------------
E|--3--------------------------3--

G|--------------------------------------------------------------------------------------
D|-----------0--2------0h2--0---------------0h2--0---------------0h2--0-----------------
A|------0h2---------------------0h2--0---------------0h2------------------0h2--0--------
E|--3-----------------------------------------------------0--------------------------3--

Full Verse
G|-----------------------------------------------
D|-----------------------------------------------
A|--3-----5-----------------5-----3--------------
E|--------------5-----3-----------------5-----3--
tabs and chords, guitar tabs, music contests, music covers, songsterr, reverbnation, renditions, tabulature, bollywood chords, ultimate guitar, yousician, guitar lessons, torrins, fender, gibson, acoustic guitar, electric guitar, youtube covers, gootar, guitar tuner, A-Z tabs, 911 tabs